  0
SECTION
  2
HEADER
  9
$ACADVER
  1
AC1021
  9
$ACADMAINTVER
 70
    25
  9
$DWGCODEPAGE
  3
ANSI_1251
  9
$INSBASE
 10
0.0
 20
0.0
 30
0.0
  9
$EXTMIN
 10
1.000000000000000E+20
 20
1.000000000000000E+20
 30
1.000000000000000E+20
  9
$EXTMAX
 10
-1.000000000000000E+20
 20
-1.000000000000000E+20
 30
-1.000000000000000E+20
  9
$LIMMIN
 10
0.0
 20
0.0
  9
$LIMMAX
 10
420.0
 20
297.0
  9
$ORTHOMODE
 70
     0
  9
$REGENMODE
 70
     1
  9
$FILLMODE
 70
     1
  9
$QTEXTMODE
 70
     0
  9
$MIRRTEXT
 70
     1
  9
$LTSCALE
 40
1.0
  9
$ATTMODE
 70
     1
  9
$TEXTSIZE
 40
2.5
  9
$TRACEWID
 40
1.0
  9
$TEXTSTYLE
  7
Standard
  9
$CLAYER
  8
0
  9
$CELTYPE
  6
ByLayer
  9
$CECOLOR
 62
   256
  9
$CELTSCALE
 40
1.0
  9
$DISPSILH
 70
     0
  9
$DIMSCALE
 40
1.0
  9
$DIMASZ
 40
2.5
  9
$DIMEXO
 40
0.625
  9
$DIMDLI
 40
3.75
  9
$DIMRND
 40
0.0
  9
$DIMDLE
 40
0.0
  9
$DIMEXE
 40
1.25
  9
$DIMTP
 40
0.0
  9
$DIMTM
 40
0.0
  9
$DIMTXT
 40
2.5
  9
$DIMCEN
 40
2.5
  9
$DIMTSZ
 40
0.0
  9
$DIMTOL
 70
     0
  9
$DIMLIM
 70
     0
  9
$DIMTIH
 70
     0
  9
$DIMTOH
 70
     0
  9
$DIMSE1
 70
     0
  9
$DIMSE2
 70
     0
  9
$DIMTAD
 70
     1
  9
$DIMZIN
 70
     8
  9
$DIMBLK
  1

  9
$DIMASO
 70
     1
  9
$DIMSHO
 70
     1
  9
$DIMPOST
  1

  9
$DIMAPOST
  1

  9
$DIMALT
 70
     0
  9
$DIMALTD
 70
     3
  9
$DIMALTF
 40
0.03937007874016
  9
$DIMLFAC
 40
1.0
  9
$DIMTOFL
 70
     1
  9
$DIMTVP
 40
0.0
  9
$DIMTIX
 70
     0
  9
$DIMSOXD
 70
     0
  9
$DIMSAH
 70
     0
  9
$DIMBLK1
  1

  9
$DIMBLK2
  1

  9
$DIMSTYLE
  2
ISO-25
  9
$DIMCLRD
 70
     0
  9
$DIMCLRE
 70
     0
  9
$DIMCLRT
 70
     0
  9
$DIMTFAC
 40
1.0
  9
$DIMGAP
 40
0.625
  9
$DIMJUST
 70
     0
  9
$DIMSD1
 70
     0
  9
$DIMSD2
 70
     0
  9
$DIMTOLJ
 70
     0
  9
$DIMTZIN
 70
     8
  9
$DIMALTZ
 70
     0
  9
$DIMALTTZ
 70
     0
  9
$DIMUPT
 70
     0
  9
$DIMDEC
 70
     2
  9
$DIMTDEC
 70
     2
  9
$DIMALTU
 70
     2
  9
$DIMALTTD
 70
     3
  9
$DIMTXSTY
  7
Standard
  9
$DIMAUNIT
 70
     0
  9
$DIMADEC
 70
     0
  9
$DIMALTRND
 40
0.0
  9
$DIMAZIN
 70
     0
  9
$DIMDSEP
 70
    44
  9
$DIMATFIT
 70
     3
  9
$DIMFRAC
 70
     0
  9
$DIMLDRBLK
  1

  9
$DIMLUNIT
 70
     2
  9
$DIMLWD
 70
    -2
  9
$DIMLWE
 70
    -2
  9
$DIMTMOVE
 70
     0
  9
$DIMFXL
 40
1.0
  9
$DIMFXLON
 70
     0
  9
$DIMJOGANG
 40
0.7853981633974483
  9
$DIMTFILL
 70
     0
  9
$DIMTFILLCLR
 70
     0
  9
$DIMARCSYM
 70
     0
  9
$DIMLTYPE
  6

  9
$DIMLTEX1
  6

  9
$DIMLTEX2
  6

  9
$LUNITS
 70
     2
  9
$LUPREC
 70
     4
  9
$SKETCHINC
 40
1.0
  9
$FILLETRAD
 40
10.0
  9
$AUNITS
 70
     0
  9
$AUPREC
 70
     0
  9
$MENU
  1
.
  9
$ELEVATION
 40
0.0
  9
$PELEVATION
 40
0.0
  9
$THICKNESS
 40
0.0
  9
$LIMCHECK
 70
     0
  9
$CHAMFERA
 40
10.0
  9
$CHAMFERB
 40
10.0
  9
$CHAMFERC
 40
20.0
  9
$CHAMFERD
 40
0.0
  9
$SKPOLY
 70
     0
  9
$TDCREATE
 40
2456421.438491215
  9
$TDUCREATE
 40
2456421.271824548
  9
$TDUPDATE
 40
2456421.438492465
  9
$TDUUPDATE
 40
2456421.271825799
  9
$TDINDWG
 40
0.0000000116
  9
$TDUSRTIMER
 40
0.0000000116
  9
$USRTIMER
 70
     1
  9
$ANGBASE
 50
0.0
  9
$ANGDIR
 70
     0
  9
$PDMODE
 70
     0
  9
$PDSIZE
 40
0.0
  9
$PLINEWID
 40
0.0
  9
$SPLFRAME
 70
     0
  9
$SPLINETYPE
 70
     6
  9
$SPLINESEGS
 70
     8
  9
$HANDSEED
  5
296
  9
$SURFTAB1
 70
     6
  9
$SURFTAB2
 70
     6
  9
$SURFTYPE
 70
     6
  9
$SURFU
 70
     6
  9
$SURFV
 70
     6
  9
$UCSBASE
  2

  9
$UCSNAME
  2

  9
$UCSORG
 10
0.0
 20
0.0
 30
0.0
  9
$UCSXDIR
 10
1.0
 20
0.0
 30
0.0
  9
$UCSYDIR
 10
0.0
 20
1.0
 30
0.0
  9
$UCSORTHOREF
  2

  9
$UCSORTHOVIEW
 70
     0
  9
$UCSORGTOP
 10
0.0
 20
0.0
 30
0.0
  9
$UCSORGBOTTOM
 10
0.0
 20
0.0
 30
0.0
  9
$UCSORGLEFT
 10
0.0
 20
0.0
 30
0.0
  9
$UCSORGRIGHT
 10
0.0
 20
0.0
 30
0.0
  9
$UCSORGFRONT
 10
0.0
 20
0.0
 30
0.0
  9
$UCSORGBACK
 10
0.0
 20
0.0
 30
0.0
  9
$PUCSBASE
  2

  9
$PUCSNAME
  2

  9
$PUCSORG
 10
0.0
 20
0.0
 30
0.0
  9
$PUCSXDIR
 10
1.0
 20
0.0
 30
0.0
  9
$PUCSYDIR
 10
0.0
 20
1.0
 30
0.0
  9
$PUCSORTHOREF
  2

  9
$PUCSORTHOVIEW
 70
     0
  9
$PUCSORGTOP
 10
0.0
 20
0.0
 30
0.0
  9
$PUCSORGBOTTOM
 10
0.0
 20
0.0
 30
0.0
  9
$PUCSORGLEFT
 10
0.0
 20
0.0
 30
0.0
  9
$PUCSORGRIGHT
 10
0.0
 20
0.0
 30
0.0
  9
$PUCSORGFRONT
 10
0.0
 20
0.0
 30
0.0
  9
$PUCSORGBACK
 10
0.0
 20
0.0
 30
0.0
  9
$USERI1
 70
     0
  9
$USERI2
 70
     0
  9
$USERI3
 70
     0
  9
$USERI4
 70
     0
  9
$USERI5
 70
     0
  9
$USERR1
 40
0.0
  9
$USERR2
 40
0.0
  9
$USERR3
 40
0.0
  9
$USERR4
 40
0.0
  9
$USERR5
 40
0.0
  9
$WORLDVIEW
 70
     1
  9
$SHADEDGE
 70
     3
  9
$SHADEDIF
 70
    70
  9
$TILEMODE
 70
     1
  9
$MAXACTVP
 70
    64
  9
$PINSBASE
 10
0.0
 20
0.0
 30
0.0
  9
$PLIMCHECK
 70
     0
  9
$PEXTMIN
 10
1.000000000000000E+20
 20
1.000000000000000E+20
 30
1.000000000000000E+20
  9
$PEXTMAX
 10
-1.000000000000000E+20
 20
-1.000000000000000E+20
 30
-1.000000000000000E+20
  9
$PLIMMIN
 10
0.0
 20
0.0
  9
$PLIMMAX
 10
420.0
 20
297.0
  9
$UNITMODE
 70
     0
  9
$VISRETAIN
 70
     1
  9
$PLINEGEN
 70
     0
  9
$PSLTSCALE
 70
     1
  9
$TREEDEPTH
 70
  3020
  9
$CMLSTYLE
  2
Standard
  9
$CMLJUST
 70
     0
  9
$CMLSCALE
 40
20.0
  9
$PROXYGRAPHICS
 70
     1
  9
$MEASUREMENT
 70
     1
  9
$CELWEIGHT
370
    -1
  9
$ENDCAPS
280
     0
  9
$JOINSTYLE
280
     0
  9
$LWDISPLAY
290
     0
  9
$INSUNITS
 70
     4
  9
$HYPERLINKBASE
  1

  9
$STYLESHEET
  1

  9
$XEDIT
290
     1
  9
$CEPSNTYPE
380
     0
  9
$PSTYLEMODE
290
     1
  9
$FINGERPRINTGUID
  2
{E2BACEAA-007C-4CFB-BF9B-E008F4B06961}
  9
$VERSIONGUID
  2
{FAEB1C32-E019-11D5-929B-00C0DF256EC4}
  9
$EXTNAMES
290
     1
  9
$PSVPSCALE
 40
0.0
  9
$OLESTARTUP
290
     0
  9
$SORTENTS
280
   127
  9
$INDEXCTL
280
     0
  9
$HIDETEXT
280
     1
  9
$XCLIPFRAME
290
     0
  9
$HALOGAP
280
     0
  9
$OBSCOLOR
 70
   257
  9
$OBSLTYPE
280
     0
  9
$INTERSECTIONDISPLAY
280
     0
  9
$INTERSECTIONCOLOR
 70
   257
  9
$DIMASSOC
280
     2
  9
$PROJECTNAME
  1

  9
$CAMERADISPLAY
290
     0
  9
$LENSLENGTH
 40
50.0
  9
$CAMERAHEIGHT
 40
0.0
  9
$STEPSPERSEC
 40
2.0
  9
$STEPSIZE
 40
6.0
  9
$3DDWFPREC
 40
2.0
  9
$PSOLWIDTH
 40
5.0
  9
$PSOLHEIGHT
 40
80.0
  9
$LOFTANG1
 40
1.570796326794897
  9
$LOFTANG2
 40
1.570796326794897
  9
$LOFTMAG1
 40
0.0
  9
$LOFTMAG2
 40
0.0
  9
$LOFTPARAM
 70
     7
  9
$LOFTNORMALS
280
     1
  9
$LATITUDE
 40
37.795
  9
$LONGITUDE
 40
-122.394
  9
$NORTHDIRECTION
 40
0.0
  9
$TIMEZONE
 70
 -8000
  9
$LIGHTGLYPHDISPLAY
280
     1
  9
$TILEMODELIGHTSYNCH
280
     1
  9
$SOLIDHIST
280
     1
  9
$SHOWHIST
280
     1
  9
$DWFFRAME
280
     2
  9
$DGNFRAME
280
     2
  9
$REALWORLDSCALE
290
     1
  9
$INTERFERECOLOR
 62
   256
  9
$CSHADOW
280
     0
  9
$SHADOWPLANELOCATION
 40
0.0
  0
ENDSEC
  0
SECTION
  2
CLASSES
  0
CLASS
  1
ACDBDICTIONARYWDFLT
  2
AcDbDictionaryWithDefault
  3
ObjectDBX Classes
 90
        0
 91
        4
280
     0
281
     0
  0
CLASS
  1
VISUALSTYLE
  2
AcDbVisualStyle
  3
ObjectDBX Classes
 90
     4095
 91
        4
280
     0
281
     0
  0
CLASS
  1
MATERIAL
  2
AcDbMaterial
  3
ObjectDBX Classes
 90
     1153
 91
        4
280
     0
281
     0
  0
CLASS
  1
IMAGEDEF
  2
AcDbRasterImageDef
  3
ISM
 90
        0
 91
        4
280
     0
281
     0
  0
CLASS
  1
RASTERVARIABLES
  2
AcDbRasterVariables
  3
ISM
 90
        0
 91
        4
280
     0
281
     0
  0
CLASS
  1
IMAGE
  2
AcDbRasterImage
  3
ISM
 90
      127
 91
        5
280
     0
281
     1
  0
CLASS
  1
IMAGEDEF_REACTOR
  2
AcDbRasterImageDefReactor
  3
ISM
 90
        1
 91
        4
280
     0
281
     0
  0
CLASS
  1
SCALE
  2
AcDbScale
  3
ObjectDBX Classes
 90
     1153
 91
        4
280
     0
281
     0
  0
CLASS
  1
DICTIONARYVAR
  2
AcDbDictionaryVar
  3
ObjectDBX Classes
 90
        0
 91
        4
280
     0
281
     0
  0
ENDSEC
  0
SECTION
  2
TABLES
  0
TABLE
  2
VPORT
  5
8
330
0
100
AcDbSymbolTable
 70
     1
  0
VPORT
  5
29
330
8
100
AcDbSymbolTableRecord
100
AcDbViewportTableRecord
  2
*Active
 70
     0
 10
0.0
 20
0.0
 11
1.0
 21
1.0
 12
440.7413363901774
 22
297.0
 13
0.0
 23
0.0
 14
10.0
 24
10.0
 15
10.0
 25
10.0
 16
0.0
 26
0.0
 36
1.0
 17
0.0
 27
0.0
 37
0.0
 40
605.88
 41
1.496629726020364
 42
50.0
 43
0.0
 44
0.0
 50
0.0
 51
0.0
 71
     0
 72
   100
 73
     1
 74
     3
 75
     0
 76
     0
 77
     0
 78
     0
281
     0
 65
     1
110
0.0
120
0.0
130
0.0
111
1.0
121
0.0
131
0.0
112
0.0
122
1.0
132
0.0
 79
     0
146
0.0
 60
     3
 61
     5
292
     1
282
     1
141
0.0
142
0.0
 63
   250
  0
ENDTAB
  0
TABLE
  2
LTYPE
  5
5
330
0
100
AcDbSymbolTable
 70
     3
  0
LTYPE
  5
14
330
5
100
AcDbSymbolTableRecord
100
AcDbLinetypeTableRecord
  2
ByBlock
 70
     0
  3

 72
    65
 73
     0
 40
0.0
  0
LTYPE
  5
15
330
5
100
AcDbSymbolTableRecord
100
AcDbLinetypeTableRecord
  2
ByLayer
 70
     0
  3

 72
    65
 73
     0
 40
0.0
  0
LTYPE
  5
16
330
5
100
AcDbSymbolTableRecord
100
AcDbLinetypeTableRecord
  2
Continuous
 70
     0
  3
Solid line
 72
    65
 73
     0
 40
0.0
  0
LTYPE
  5
42
330
5
100
AcDbSymbolTableRecord
100
AcDbLinetypeTableRecord
  2
K5LT_THIN
 70
     0
  3

 72
    65
 73
     0
 40
0.0
  0
LTYPE
  5
AD
330
5
100
AcDbSymbolTableRecord
100
AcDbLinetypeTableRecord
  2
K5LT_BASIC
 70
     0
  3

 72
    65
 73
     0
 40
0.0
  0
ENDTAB
  0
TABLE
  2
LAYER
  5
2
330
0
100
AcDbSymbolTable
 70
     2
  0
LAYER
  5
10
330
2
100
AcDbSymbolTableRecord
100
AcDbLayerTableRecord
  2
0
 70
     0
 62
     7
  6
Continuous
370
    -3
390
F
347
3E
  0
LAYER
  5
40
330
2
100
AcDbSymbolTableRecord
100
AcDbLayerTableRecord
  2
Системный слой
 70
     0
 62
     7
  6
Continuous
370
    -3
390
F
347
3E
  0
ENDTAB
  0
TABLE
  2
STYLE
  5
3
330
0
100
AcDbSymbolTable
 70
     2
  0
STYLE
  5
11
330
3
100
AcDbSymbolTableRecord
100
AcDbTextStyleTableRecord
  2
Standard
 70
     0
 40
0.0
 41
1.0
 50
0.0
 71
     0
 42
2.5
  3
txt
  4

  0
STYLE
  5
A9
330
3
100
AcDbSymbolTableRecord
100
AcDbTextStyleTableRecord
  2
KTEXTSTYLE
 70
     0
 40
5.0
 41
0.96
 50
0.0
 71
     0
 42
0.2
  3
GOST_AU.SHX
  4

  0
ENDTAB
  0
TABLE
  2
VIEW
  5
6
330
0
100
AcDbSymbolTable
 70
     0
  0
ENDTAB
  0
TABLE
  2
UCS
  5
7
330
0
100
AcDbSymbolTable
 70
     0
  0
ENDTAB
  0
TABLE
  2
APPID
  5
9
330
0
100
AcDbSymbolTable
 70
     2
  0
APPID
  5
12
330
9
100
AcDbSymbolTableRecord
100
AcDbRegAppTableRecord
  2
ACAD
 70
     0
  0
APPID
  5
3F
330
9
100
AcDbSymbolTableRecord
100
AcDbRegAppTableRecord
  2
KOMPAS
 70
     0
  0
ENDTAB
  0
TABLE
  2
DIMSTYLE
  5
A
330
0
100
AcDbSymbolTable
 70
     1
100
AcDbDimStyleTable
  0
DIMSTYLE
105
27
330
A
100
AcDbSymbolTableRecord
100
AcDbDimStyleTableRecord
  2
ISO-25
 70
     0
 41
2.5
 42
0.625
 43
3.75
 44
1.25
 73
     0
 74
     0
 77
     1
 78
     8
140
2.5
141
2.5
143
0.03937007874016
147
0.625
171
     3
172
     1
178
     0
271
     2
272
     2
274
     3
278
    44
283
     0
284
     8
340
11
  0
ENDTAB
  0
TABLE
  2
BLOCK_RECORD
  5
1
330
0
100
AcDbSymbolTable
 70
    27
  0
BLOCK_RECORD
  5
1F
330
1
100
AcDbSymbolTableRecord
100
AcDbBlockTableRecord
  2
*Model_Space
340
22
 70
     0
280
     1
281
     0
  0
BLOCK_RECORD
  5
1B
330
1
100
AcDbSymbolTableRecord
100
AcDbBlockTableRecord
  2
*Paper_Space
340
1E
 70
     0
280
     1
281
     0
  0
BLOCK_RECORD
  5
23
330
1
100
AcDbSymbolTableRecord
100
AcDbBlockTableRecord
  2
*Paper_Space0
340
26
 70
     0
280
     1
281
     0
  0
BLOCK_RECORD
  5
41
330
1
100
AcDbSymbolTableRecord
100
AcDbBlockTableRecord
  2
KDIMARROW_00
340
0
 70
     0
280
     1
281
     0
  0
BLOCK_RECORD
  5
46
330
1
100
AcDbSymbolTableRecord
100
AcDbBlockTableRecord
  2
KDIMARROW_01
340
0
 70
     0
280
     1
281
     0
  0
BLOCK_RECORD
  5
4F
330
1
100
AcDbSymbolTableRecord
100
AcDbBlockTableRecord
  2
KDIMARROW_02
340
0
 70
     0
280
     1
281
     0
  0
BLOCK_RECORD
  5
59
330
1
100
AcDbSymbolTableRecord
100
AcDbBlockTableRecord
  2
KDIMARROW_03
340
0
 70
     0
280
     1
281
     0
  0
BLOCK_RECORD
  5
5F
330
1
100
AcDbSymbolTableRecord
100
AcDbBlockTableRecord
  2
KDIMARROW_04
340
0
 70
     0
280
     1
281
     0
  0
BLOCK_RECORD
  5
65
330
1
100
AcDbSymbolTableRecord
100
AcDbBlockTableRecord
  2
KDIMARROW_05
340
0
 70
     0
280
     1
281
     0
  0
BLOCK_RECORD
  5
6E
330
1
100
AcDbSymbolTableRecord
100
AcDbBlockTableRecord
  2
KDIMARROW_06
340
0
 70
     0
280
     1
281
     0
  0
BLOCK_RECORD
  5
78
330
1
100
AcDbSymbolTableRecord
100
AcDbBlockTableRecord
  2
KDIMARROW_07
340
0
 70
     0
280
     1
281
     0
  0
BLOCK_RECORD
  5
7E
330
1
100
AcDbSymbolTableRecord
100
AcDbBlockTableRecord
  2
KDIMARROW_08
340
0
 70
     0
280
     1
281
     0
  0
BLOCK_RECORD
  5
85
330
1
100
AcDbSymbolTableRecord
100
AcDbBlockTableRecord
  2
KDIMARROW_09
340
0
 70
     0
280
     1
281
     0
  0
BLOCK_RECORD
  5
8B
330
1
100
AcDbSymbolTableRecord
100
AcDbBlockTableRecord
  2
KDIMARROW_10
340
0
 70
     0
280
     1
281
     0
  0
BLOCK_RECORD
  5
92
330
1
100
AcDbSymbolTableRecord
100
AcDbBlockTableRecord
  2
KDIMARROW_11
340
0
 70
     0
280
     1
281
     0
  0
BLOCK_RECORD
  5
98
330
1
100
AcDbSymbolTableRecord
100
AcDbBlockTableRecord
  2
KDIMARROW_12
340
0
 70
     0
280
     1
281
     0
  0
BLOCK_RECORD
  5
9E
330
1
100
AcDbSymbolTableRecord
100
AcDbBlockTableRecord
  2
KDIMARROW_13
340
0
 70
     0
280
     1
281
     0
  0
BLOCK_RECORD
  5
AB
330
1
100
AcDbSymbolTableRecord
100
AcDbBlockTableRecord
  2
U0
340
0
102
{BLKREFS
331
AC
102
}
 70
     0
280
     1
281
     0
  0
BLOCK_RECORD
  5
1AA
330
1
100
AcDbSymbolTableRecord
100
AcDbBlockTableRecord
  2
U1
340
0
102
{BLKREFS
331
1AB
102
}
 70
     0
280
     1
281
     0
  0
BLOCK_RECORD
  5
1B1
330
1
100
AcDbSymbolTableRecord
100
AcDbBlockTableRecord
  2
U2
340
0
102
{BLKREFS
331
1B2
102
}
 70
     0
280
     1
281
     0
  0
BLOCK_RECORD
  5
1B6
330
1
100
AcDbSymbolTableRecord
100
AcDbBlockTableRecord
  2
U3
340
0
102
{BLKREFS
331
1B7
102
}
 70
     0
280
     1
281
     0
  0
BLOCK_RECORD
  5
1B9
330
1
100
AcDbSymbolTableRecord
100
AcDbBlockTableRecord
  2
U4
340
0
102
{BLKREFS
331
1BA
102
}
 70
     0
280
     1
281
     0
  0
BLOCK_RECORD
  5
1C3
330
1
100
AcDbSymbolTableRecord
100
AcDbBlockTableRecord
  2
U5
340
0
102
{BLKREFS
331
1C4
102
}
 70
     0
280
     1
281
     0
  0
BLOCK_RECORD
  5
1CF
330
1
100
AcDbSymbolTableRecord
100
AcDbBlockTableRecord
  2
U6
340
0
102
{BLKREFS
331
1D0
102
}
 70
     0
280
     1
281
     0
  0
BLOCK_RECORD
  5
1D2
330
1
100
AcDbSymbolTableRecord
100
AcDbBlockTableRecord
  2
U7
340
0
102
{BLKREFS
331
1D3
102
}
 70
     0
280
     1
281
     0
  0
BLOCK_RECORD
  5
1D8
330
1
100
AcDbSymbolTableRecord
100
AcDbBlockTableRecord
  2
U8
340
0
102
{BLKREFS
331
1D9
102
}
 70
     0
280
     1
281
     0
  0
BLOCK_RECORD
  5
1E3
330
1
100
AcDbSymbolTableRecord
100
AcDbBlockTableRecord
  2
U9
340
0
102
{BLKREFS
331
1E4
102
}
 70
     0
280
     1
281
     0
  0
BLOCK_RECORD
  5
1EA
330
1
100
AcDbSymbolTableRecord
100
AcDbBlockTableRecord
  2
U10
340
0
102
{BLKREFS
331
1EB
102
}
 70
     0
280
     1
281
     0
  0
BLOCK_RECORD
  5
1F5
330
1
100
AcDbSymbolTableRecord
100
AcDbBlockTableRecord
  2
U11
340
0
102
{BLKREFS
331
1F6
102
}
 70
     0
280
     1
281
     0
  0
ENDTAB
  0
ENDSEC
  0
SECTION
  2
BLOCKS
  0
BLOCK
  5
20
330
1F
100
AcDbEntity
  8
0
100
AcDbBlockBegin
  2
*Model_Space
 70
     0
 10
0.0
 20
0.0
 30
0.0
  3
*Model_Space
  1

  0
ENDBLK
  5
21
330
1F
100
AcDbEntity
  8
0
100
AcDbBlockEnd
  0
BLOCK
  5
1C
330
1B
100
AcDbEntity
 67
     1
  8
0
100
AcDbBlockBegin
  2
*Paper_Space
 70
     0
 10
0.0
 20
0.0
 30
0.0
  3
*Paper_Space
  1

  0
ENDBLK
  5
1D
330
1B
100
AcDbEntity
 67
     1
  8
0
100
AcDbBlockEnd
  0
BLOCK
  5
24
330
23
100
AcDbEntity
  8
0
100
AcDbBlockBegin
  2
*Paper_Space0
 70
     0
 10
0.0
 20
0.0
 30
0.0
  3
*Paper_Space0
  1

  0
ENDBLK
  5
25
330
23
100
AcDbEntity
  8
0
100
AcDbBlockEnd
  0
BLOCK
  5
44
330
41
100
AcDbEntity
  8
0
100
AcDbBlockBegin
  2
KDIMARROW_00
 70
     0
 10
0.0
 20
0.0
 30
0.0
  3
KDIMARROW_00
  1

  0
LINE
  5
43
330
41
100
AcDbEntity
  8
0
  6
K5LT_THIN
 62
     0
370
    18
100
AcDbLine
 10
0.0
 20
0.0
 30
0.0
 11
-1.0
 21
0.0
 31
0.0
  0
ENDBLK
  5
45
330
41
100
AcDbEntity
  8
0
100
AcDbBlockEnd
  0
BLOCK
  5
4D
330
46
100
AcDbEntity
  8
0
100
AcDbBlockBegin
  2
KDIMARROW_01
 70
     0
 10
0.0
 20
0.0
 30
0.0
  3
KDIMARROW_01
  1

  0
LINE
  5
47
330
46
100
AcDbEntity
  8
0
  6
K5LT_THIN
 62
     0
370
    18
100
AcDbLine
 10
0.0
 20
0.0
 30
0.0
 11
-5.0
 21
-0.6582624912261956
 31
0.0
  0
LINE
  5
48
330
46
100
AcDbEntity
  8
0
  6
K5LT_THIN
 62
     0
370
    18
100
AcDbLine
 10
-5.0
 20
-0.6582624912261956
 30
0.0
 11
-4.5
 21
0.0000000000000006
 31
0.0
  0
LINE
  5
49
330
46
100
AcDbEntity
  8
0
  6
K5LT_THIN
 62
     0
370
    18
100
AcDbLine
 10
-4.5
 20
0.0000000000000006
 30
0.0
 11
-5.0
 21
0.658262491226197
 31
0.0
  0
LINE
  5
4A
330
46
100
AcDbEntity
  8
0
  6
K5LT_THIN
 62
     0
370
    18
100
AcDbLine
 10
-5.0
 20
0.658262491226197
 30
0.0
 11
0.0
 21
0.0
 31
0.0
  0
HATCH
  5
4B
330
46
100
AcDbEntity
  8
0
 62
     0
100
AcDbHatch
 10
0.0
 20
0.0
 30
0.0
210
0.0
220
0.0
230
1.0
  2
SOLID
 70
     1
 71
     0
 91
        1
 92
        1
 93
        4
 72
     1
 10
0.0
 20
0.0
 11
-5.0
 21
0.658262491226197
 72
     1
 10
-5.0
 20
0.658262491226197
 11
-4.5
 21
0.0000000000000006
 72
     1
 10
-4.5
 20
0.0000000000000006
 11
-5.0
 21
-0.6582624912261956
 72
     1
 10
-5.0
 20
-0.6582624912261956
 11
0.0
 21
0.0
 97
        0
 75
     0
 76
     1
 98
        0
  0
LINE
  5
4C
330
46
100
AcDbEntity
  8
0
  6
K5LT_THIN
 62
     0
370
    18
100
AcDbLine
 10
0.0
 20
0.0
 30
0.0
 11
-1.0
 21
0.0
 31
0.0
  0
ENDBLK
  5
4E
330
46
100
AcDbEntity
  8
0
100
AcDbBlockEnd
  0
BLOCK
  5
57
330
4F
100
AcDbEntity
  8
0
100
AcDbBlockBegin
  2
KDIMARROW_02
 70
     0
 10
0.0
 20
0.0
 30
0.0
  3
KDIMARROW_02
  1

  0
LINE
  5
50
330
4F
100
AcDbEntity
  8
0
  6
K5LT_THIN
 62
     0
370
    18
100
AcDbLine
 10
0.0
 20
0.0
 30
0.0
 11
5.0
 21
-0.658262491226197
 31
0.0
  0
LINE
  5
51
330
4F
100
AcDbEntity
  8
0
  6
K5LT_THIN
 62
     0
370
    18
100
AcDbLine
 10
5.0
 20
-0.658262491226197
 30
0.0
 11
4.5
 21
-0.0000000000000006
 31
0.0
  0
LINE
  5
52
330
4F
100
AcDbEntity
  8
0
  6
K5LT_THIN
 62
     0
370
    18
100
AcDbLine
 10
4.5
 20
-0.0000000000000006
 30
0.0
 11
5.0
 21
0.6582624912261956
 31
0.0
  0
LINE
  5
53
330
4F
100
AcDbEntity
  8
0
  6
K5LT_THIN
 62
     0
370
    18
100
AcDbLine
 10
5.0
 20
0.6582624912261956
 30
0.0
 11
0.0
 21
0.0
 31
0.0
  0
LINE
  5
54
330
4F
100
AcDbEntity
  8
0
  6
K5LT_THIN
 62
     0
370
    18
100
AcDbLine
 10
0.0
 20
0.0
 30
0.0
 11
7.0
 21
-0.0000000000000009
 31
0.0
  0
HATCH
  5
55
330
4F
100
AcDbEntity
  8
0
 62
     0
100
AcDbHatch
 10
0.0
 20
0.0
 30
0.0
210
0.0
220
0.0
230
1.0
  2
SOLID
 70
     1
 71
     0
 91
        1
 92
        1
 93
        4
 72
     1
 10
4.5
 20
-0.0000000000000006
 11
5.0
 21
0.6582624912261956
 72
     1
 10
5.0
 20
0.6582624912261956
 11
0.0
 21
0.0
 72
     1
 10
0.0
 20
0.0
 11
5.0
 21
-0.658262491226197
 72
     1
 10
5.0
 20
-0.658262491226197
 11
4.5
 21
-0.0000000000000006
 97
        0
 75
     0
 76
     1
 98
        0
  0
LINE
  5
56
330
4F
100
AcDbEntity
  8
0
  6
K5LT_THIN
 62
     0
370
    18
100
AcDbLine
 10
0.0
 20
0.0
 30
0.0
 11
-1.0
 21
0.0
 31
0.0
  0
ENDBLK
  5
58
330
4F
100
AcDbEntity
  8
0
100
AcDbBlockEnd
  0
BLOCK
  5
5D
330
59
100
AcDbEntity
  8
0
100
AcDbBlockBegin
  2
KDIMARROW_03
 70
     0
 10
0.0
 20
0.0
 30
0.0
  3
KDIMARROW_03
  1

  0
LINE
  5
5A
330
59
100
AcDbEntity
  8
0
  6
K5LT_THIN
 62
     0
370
    18
100
AcDbLine
 10
-1.060500025749207
 20
-1.060500025749206
 30
0.0
 11
1.060500025749207
 21
1.060500025749206
 31
0.0
  0
LINE
  5
5B
330
59
100
AcDbEntity
  8
0
  6
K5LT_THIN
 62
     0
370
    18
100
AcDbLine
 10
0.0
 20
0.0
 30
0.0
 11
2.0
 21
-0.0000000000000002
 31
0.0
  0
LINE
  5
5C
330
59
100
AcDbEntity
  8
0
  6
K5LT_THIN
 62
     0
370
    18
100
AcDbLine
 10
0.0
 20
0.0
 30
0.0
 11
-1.0
 21
0.0
 31
0.0
  0
ENDBLK
  5
5E
330
59
100
AcDbEntity
  8
0
100
AcDbBlockEnd
  0
BLOCK
  5
63
330
5F
100
AcDbEntity
  8
0
100
AcDbBlockBegin
  2
KDIMARROW_04
 70
     0
 10
0.0
 20
0.0
 30
0.0
  3
KDIMARROW_04
  1

  0
LWPOLYLINE
  5
60
330
5F
100
AcDbEntity
  8
0
  6
K5LT_THIN
 62
     7
100
AcDbPolyline
 90
       15
 70
     0
 43
0.18
 10
-0.25
 20
0.0
 10
0.0
 20
-0.25
 10
0.25
 20
0.0
 10
0.0
 20
0.25
 10
-0.25
 20
0.0
 10
-0.5
 20
0.0000000000000001
 10
-0.0000000000000001
 20
-0.5
 10
0.5
 20
-0.0000000000000001
 10
0.0000000000000001
 20
0.5
 10
-0.5
 20
0.0000000000000001
 10
-0.75
 20
0.0000000000000001
 10
-0.0000000000000001
 20
-0.75
 10
0.75
 20
-0.0000000000000001
 10
0.0000000000000001
 20
0.75
 10
-0.75
 20
0.0000000000000001
  0
LWPOLYLINE
  5
61
330
5F
100
AcDbEntity
  8
0
  6
K5LT_THIN
 62
     7
100
AcDbPolyline
 90
       15
 70
     0
 43
0.18
 10
-0.25
 20
0.0
 10
0.0
 20
-0.25
 10
0.25
 20
0.0
 10
0.0
 20
0.25
 10
-0.25
 20
0.0
 10
-0.5
 20
0.0000000000000001
 10
-0.0000000000000001
 20
-0.5
 10
0.5
 20
-0.0000000000000001
 10
0.0000000000000001
 20
0.5
 10
-0.5
 20
0.0000000000000001
 10
-0.75
 20
0.0000000000000001
 10
-0.0000000000000001
 20
-0.75
 10
0.75
 20
-0.0000000000000001
 10
0.0000000000000001
 20
0.75
 10
-0.75
 20
0.0000000000000001
  0
LINE
  5
62
330
5F
100
AcDbEntity
  8
0
  6
K5LT_THIN
 62
     0
370
    18
100
AcDbLine
 10
0.0
 20
0.0
 30
0.0
 11
-1.0
 21
0.0
 31
0.0
  0
ENDBLK
  5
64
330
5F
100
AcDbEntity
  8
0
100
AcDbBlockEnd
  0
BLOCK
  5
6C
330
65
100
AcDbEntity
  8
0
100
AcDbBlockBegin
  2
KDIMARROW_05
 70
     0
 10
0.0
 20
0.0
 30
0.0
  3
KDIMARROW_05
  1

  0
LINE
  5
66
330
65
100
AcDbEntity
  8
0
  6
K5LT_THIN
 62
     0
370
    18
100
AcDbLine
 10
0.0
 20
0.0
 30
0.0
 11
-5.0
 21
-0.6582624912261956
 31
0.0
  0
LINE
  5
67
330
65
100
AcDbEntity
  8
0
  6
K5LT_THIN
 62
     0
370
    18
100
AcDbLine
 10
-5.0
 20
-0.6582624912261956
 30
0.0
 11
-5.0
 21
0.0000000000000006
 31
0.0
  0
LINE
  5
68
330
65
100
AcDbEntity
  8
0
  6
K5LT_THIN
 62
     0
370
    18
100
AcDbLine
 10
-5.0
 20
0.0000000000000006
 30
0.0
 11
-5.0
 21
0.658262491226197
 31
0.0
  0
LINE
  5
69
330
65
100
AcDbEntity
  8
0
  6
K5LT_THIN
 62
     0
370
    18
100
AcDbLine
 10
-5.0
 20
0.658262491226197
 30
0.0
 11
0.0
 21
0.0
 31
0.0
  0
HATCH
  5
6A
330
65
100
AcDbEntity
  8
0
 62
     0
100
AcDbHatch
 10
0.0
 20
0.0
 30
0.0
210
0.0
220
0.0
230
1.0
  2
SOLID
 70
     1
 71
     0
 91
        1
 92
        1
 93
        4
 72
     1
 10
0.0
 20
0.0
 11
-5.0
 21
0.658262491226197
 72
     1
 10
-5.0
 20
0.658262491226197
 11
-5.0
 21
0.0000000000000007
 72
     1
 10
-5.0
 20
0.0000000000000006
 11
-5.0
 21
-0.6582624912261956
 72
     1
 10
-5.0
 20
-0.6582624912261956
 11
0.0
 21
0.0
 97
        0
 75
     0
 76
     1
 98
        0
  0
LINE
  5
6B
330
65
100
AcDbEntity
  8
0
  6
K5LT_THIN
 62
     0
370
    18
100
AcDbLine
 10
0.0
 20
0.0
 30
0.0
 11
-1.0
 21
0.0
 31
0.0
  0
ENDBLK
  5
6D
330
65
100
AcDbEntity
  8
0
100
AcDbBlockEnd
  0
BLOCK
  5
76
330
6E
100
AcDbEntity
  8
0
100
AcDbBlockBegin
  2
KDIMARROW_06
 70
     0
 10
0.0
 20
0.0
 30
0.0
  3
KDIMARROW_06
  1

  0
LINE
  5
6F
330
6E
100
AcDbEntity
  8
0
  6
K5LT_THIN
 62
     0
370
    18
100
AcDbLine
 10
0.0
 20
0.0
 30
0.0
 11
5.0
 21
-0.658262491226197
 31
0.0
  0
LINE
  5
70
330
6E
100
AcDbEntity
  8
0
  6
K5LT_THIN
 62
     0
370
    18
100
AcDbLine
 10
5.0
 20
-0.658262491226197
 30
0.0
 11
5.0
 21
-0.0000000000000006
 31
0.0
  0
LINE
  5
71
330
6E
100
AcDbEntity
  8
0
  6
K5LT_THIN
 62
     0
370
    18
100
AcDbLine
 10
5.0
 20
-0.0000000000000006
 30
0.0
 11
5.0
 21
0.6582624912261956
 31
0.0
  0
LINE
  5
72
330
6E
100
AcDbEntity
  8
0
  6
K5LT_THIN
 62
     0
370
    18
100
AcDbLine
 10
5.0
 20
0.6582624912261956
 30
0.0
 11
0.0
 21
0.0
 31
0.0
  0
LINE
  5
73
330
6E
100
AcDbEntity
  8
0
  6
K5LT_THIN
 62
     0
370
    18
100
AcDbLine
 10
0.0
 20
0.0
 30
0.0
 11
7.0
 21
-0.0000000000000009
 31
0.0
  0
HATCH
  5
74
330
6E
100
AcDbEntity
  8
0
 62
     0
100
AcDbHatch
 10
0.0
 20
0.0
 30
0.0
210
0.0
220
0.0
230
1.0
  2
SOLID
 70
     1
 71
     0
 91
        1
 92
        1
 93
        4
 72
     1
 10
5.0
 20
-0.0000000000000006
 11
5.0
 21
0.6582624912261956
 72
     1
 10
5.0
 20
0.6582624912261956
 11
0.0
 21
0.0
 72
     1
 10
0.0
 20
0.0
 11
5.0
 21
-0.658262491226197
 72
     1
 10
5.0
 20
-0.658262491226197
 11
5.0
 21
-0.0000000000000007
 97
        0
 75
     0
 76
     1
 98
        0
  0
LINE
  5
75
330
6E
100
AcDbEntity
  8
0
  6
K5LT_THIN
 62
     0
370
    18
100
AcDbLine
 10
0.0
 20
0.0
 30
0.0
 11
-1.0
 21
0.0
 31
0.0
  0
ENDBLK
  5
77
330
6E
100
AcDbEntity
  8
0
100
AcDbBlockEnd
  0
BLOCK
  5
7C
330
78
100
AcDbEntity
  8
0
100
AcDbBlockBegin
  2
KDIMARROW_07
 70
     0
 10
0.0
 20
0.0
 30
0.0
  3
KDIMARROW_07
  1

  0
LINE
  5
79
330
78
100
AcDbEntity
  8
0
  6
K5LT_THIN
 62
     0
370
    18
100
AcDbLine
 10
0.0
 20
0.0
 30
0.0
 11
-5.0
 21
-0.6582624912261956
 31
0.0
  0
LINE
  5
7A
330
78
100
AcDbEntity
  8
0
  6
K5LT_THIN
 62
     0
370
    18
100
AcDbLine
 10
0.0
 20
0.0
 30
0.0
 11
-5.0
 21
0.658262491226197
 31
0.0
  0
LINE
  5
7B
330
78
100
AcDbEntity
  8
0
  6
K5LT_THIN
 62
     0
370
    18
100
AcDbLine
 10
0.0
 20
0.0
 30
0.0
 11
-1.0
 21
0.0
 31
0.0
  0
ENDBLK
  5
7D
330
78
100
AcDbEntity
  8
0
100
AcDbBlockEnd
  0
BLOCK
  5
83
330
7E
100
AcDbEntity
  8
0
100
AcDbBlockBegin
  2
KDIMARROW_08
 70
     0
 10
0.0
 20
0.0
 30
0.0
  3
KDIMARROW_08
  1

  0
LINE
  5
7F
330
7E
100
AcDbEntity
  8
0
  6
K5LT_THIN
 62
     0
370
    18
100
AcDbLine
 10
0.0
 20
0.0
 30
0.0
 11
5.0
 21
-0.658262491226197
 31
0.0
  0
LINE
  5
80
330
7E
100
AcDbEntity
  8
0
  6
K5LT_THIN
 62
     0
370
    18
100
AcDbLine
 10
0.0
 20
0.0
 30
0.0
 11
5.0
 21
0.6582624912261956
 31
0.0
  0
LINE
  5
81
330
7E
100
AcDbEntity
  8
0
  6
K5LT_THIN
 62
     0
370
    18
100
AcDbLine
 10
0.0
 20
0.0
 30
0.0
 11
7.0
 21
-0.0000000000000009
 31
0.0
  0
LINE
  5
82
330
7E
100
AcDbEntity
  8
0
  6
K5LT_THIN
 62
     0
370
    18
100
AcDbLine
 10
0.0
 20
0.0
 30
0.0
 11
-1.0
 21
0.0
 31
0.0
  0
ENDBLK
  5
84
330
7E
100
AcDbEntity
  8
0
100
AcDbBlockEnd
  0
BLOCK
  5
89
330
85
100
AcDbEntity
  8
0
100
AcDbBlockBegin
  2
KDIMARROW_09
 70
     0
 10
0.0
 20
0.0
 30
0.0
  3
KDIMARROW_09
  1

  0
LINE
  5
86
330
85
100
AcDbEntity
  8
0
  6
K5LT_THIN
 62
     0
370
    18
100
AcDbLine
 10
0.0
 20
0.0
 30
0.0
 11
-2.0
 21
-2.0
 31
0.0
  0
LINE
  5
87
330
85
100
AcDbEntity
  8
0
  6
K5LT_THIN
 62
     0
370
    18
100
AcDbLine
 10
0.0
 20
0.0
 30
0.0
 11
-2.0
 21
2.0
 31
0.0
  0
LINE
  5
88
330
85
100
AcDbEntity
  8
0
  6
K5LT_THIN
 62
     0
370
    18
100
AcDbLine
 10
0.0
 20
0.0
 30
0.0
 11
-1.0
 21
0.0
 31
0.0
  0
ENDBLK
  5
8A
330
85
100
AcDbEntity
  8
0
100
AcDbBlockEnd
  0
BLOCK
  5
90
330
8B
100
AcDbEntity
  8
0
100
AcDbBlockBegin
  2
KDIMARROW_10
 70
     0
 10
0.0
 20
0.0
 30
0.0
  3
KDIMARROW_10
  1

  0
LINE
  5
8C
330
8B
100
AcDbEntity
  8
0
  6
K5LT_THIN
 62
     0
370
    18
100
AcDbLine
 10
0.0
 20
0.0
 30
0.0
 11
2.0
 21
-2.0
 31
0.0
  0
LINE
  5
8D
330
8B
100
AcDbEntity
  8
0
  6
K5LT_THIN
 62
     0
370
    18
100
AcDbLine
 10
0.0
 20
0.0
 30
0.0
 11
2.0
 21
2.0
 31
0.0
  0
LINE
  5
8E
330
8B
100
AcDbEntity
  8
0
  6
K5LT_THIN
 62
     0
370
    18
100
AcDbLine
 10
0.0
 20
0.0
 30
0.0
 11
4.0
 21
-0.0000000000000005
 31
0.0
  0
LINE
  5
8F
330
8B
100
AcDbEntity
  8
0
  6
K5LT_THIN
 62
     0
370
    18
100
AcDbLine
 10
0.0
 20
0.0
 30
0.0
 11
-1.0
 21
0.0
 31
0.0
  0
ENDBLK
  5
91
330
8B
100
AcDbEntity
  8
0
100
AcDbBlockEnd
  0
BLOCK
  5
96
330
92
100
AcDbEntity
  8
0
100
AcDbBlockBegin
  2
KDIMARROW_11
 70
     0
 10
0.0
 20
0.0
 30
0.0
  3
KDIMARROW_11
  1

  0
CIRCLE
  5
93
330
92
100
AcDbEntity
  8
0
  6
K5LT_THIN
 62
     0
370
    18
100
AcDbCircle
 10
0.0
 20
0.0
 30
0.0
 40
2.5
  0
CIRCLE
  5
94
330
92
100
AcDbEntity
  8
0
  6
K5LT_THIN
 62
     0
370
    18
100
AcDbCircle
 10
0.0
 20
0.0
 30
0.0
 40
2.5
  0
LINE
  5
95
330
92
100
AcDbEntity
  8
0
  6
K5LT_THIN
 62
     0
370
    18
100
AcDbLine
 10
0.0
 20
0.0
 30
0.0
 11
-1.0
 21
0.0
 31
0.0
  0
ENDBLK
  5
97
330
92
100
AcDbEntity
  8
0
100
AcDbBlockEnd
  0
BLOCK
  5
9C
330
98
100
AcDbEntity
  8
0
100
AcDbBlockBegin
  2
KDIMARROW_12
 70
     0
 10
0.0
 20
0.0
 30
0.0
  3
KDIMARROW_12
  1

  0
CIRCLE
  5
99
330
98
100
AcDbEntity
  8
0
  6
K5LT_THIN
 62
     0
370
    18
100
AcDbCircle
 10
0.0
 20
0.0
 30
0.0
 40
1.5
  0
CIRCLE
  5
9A
330
98
100
AcDbEntity
  8
0
  6
K5LT_THIN
 62
     0
370
    18
100
AcDbCircle
 10
0.0
 20
0.0
 30
0.0
 40
1.5
  0
LINE
  5
9B
330
98
100
AcDbEntity
  8
0
  6
K5LT_THIN
 62
     0
370
    18
100
AcDbLine
 10
0.0
 20
0.0
 30
0.0
 11
-1.0
 21
0.0
 31
0.0
  0
ENDBLK
  5
9D
330
98
100
AcDbEntity
  8
0
100
AcDbBlockEnd
  0
BLOCK
  5
A2
330
9E
100
AcDbEntity
  8
0
100
AcDbBlockBegin
  2
KDIMARROW_13
 70
     0
 10
0.0
 20
0.0
 30
0.0
  3
KDIMARROW_13
  1

  0
LINE
  5
9F
330
9E
100
AcDbEntity
  8
0
  6
K5LT_THIN
 62
     0
370
    18
100
AcDbLine
 10
-1.060500025749206
 20
1.060500025749207
 30
0.0
 11
1.060500025749206
 21
-1.060500025749207
 31
0.0
  0
LINE
  5
A0
330
9E
100
AcDbEntity
  8
0
  6
K5LT_THIN
 62
     0
370
    18
100
AcDbLine
 10
0.0
 20
0.0
 30
0.0
 11
2.0
 21
-0.0000000000000002
 31
0.0
  0
LINE
  5
A1
330
9E
100
AcDbEntity
  8
0
  6
K5LT_THIN
 62
     0
370
    18
100
AcDbLine
 10
0.0
 20
0.0
 30
0.0
 11
-1.0
 21
0.0
 31
0.0
  0
ENDBLK
  5
A3
330
9E
100
AcDbEntity
  8
0
100
AcDbBlockEnd
  0
BLOCK
  5
1A8
330
AB
100
AcDbEntity
  8
0
100
AcDbBlockBegin
  2
U0
 70
     0
 10
0.0
 20
0.0
 30
0.0
  3
U0
  1

  0
LINE
  5
AE
330
AB
100
AcDbEntity
  8
0
  6
K5LT_BASIC
 62
     5
420
      255
370
    60
100
AcDbLine
 10
80.2799592766396
 20
468.8294442865588
 30
0.0
 11
527.2799592766396
 21
468.8294442865588
 31
0.0
  0
LINE
  5
AF
330
AB
100
AcDbEntity
  8
0
  6
K5LT_BASIC
 62
     5
420
      255
370
    60
100
AcDbLine
 10
80.2799592766396
 20
453.8294442865588
 30
0.0
 11
527.2799592766396
 21
453.8294442865588
 31
0.0
  0
LINE
  5
B0
330
AB
100
AcDbEntity
  8
0
  6
K5LT_THIN
 62
     7
370
    18
100
AcDbLine
 10
80.2799592766396
 20
443.8294442865588
 30
0.0
 11
527.2799592766396
 21
443.8294442865588
 31
0.0
  0
LINE
  5
B1
330
AB
100
AcDbEntity
  8
0
  6
K5LT_THIN
 62
     7
370
    18
100
AcDbLine
 10
80.2799592766396
 20
433.8294442865588
 30
0.0
 11
527.2799592766396
 21
433.8294442865588
 31
0.0
  0
LINE
  5
B2
330
AB
100
AcDbEntity
  8
0
  6
K5LT_THIN
 62
     7
370
    18
100
AcDbLine
 10
80.2799592766396
 20
423.8294442865588
 30
0.0
 11
527.2799592766396
 21
423.8294442865588
 31
0.0
  0
LINE
  5
B3
330
AB
100
AcDbEntity
  8
0
  6
K5LT_THIN
 62
     7
370
    18
100
AcDbLine
 10
80.2799592766396
 20
411.8294442865588
 30
0.0
 11
527.2799592766396
 21
411.8294442865588
 31
0.0
  0
LINE
  5
B4
330
AB
100
AcDbEntity
  8
0
  6
K5LT_THIN
 62
     7
370
    18
100
AcDbLine
 10
80.2799592766396
 20
399.8294442865588
 30
0.0
 11
527.2799592766396
 21
399.8294442865588
 31
0.0
  0
LINE
  5
B5
330
AB
100
AcDbEntity
  8
0
  6
K5LT_THIN
 62
     7
370
    18
100
AcDbLine
 10
80.2799592766396
 20
387.8294442865588
 30
0.0
 11
527.2799592766396
 21
387.8294442865588
 31
0.0
  0
LINE
  5
B6
330
AB
100
AcDbEntity
  8
0
  6
K5LT_THIN
 62
     7
370
    18
100
AcDbLine
 10
80.2799592766396
 20
374.8294442865588
 30
0.0
 11
527.2799592766396
 21
374.8294442865588
 31
0.0
  0
LINE
  5
B7
330
AB
100
AcDbEntity
  8
0
  6
K5LT_THIN
 62
     7
370
    18
100
AcDbLine
 10
80.2799592766396
 20
361.8294442865588
 30
0.0
 11
527.2799592766396
 21
361.8294442865588
 31
0.0
  0
LINE
  5
B8
330
AB
100
AcDbEntity
  8
0
  6
K5LT_THIN
 62
     7
370
    18
100
AcDbLine
 10
80.2799592766396
 20
349.8294442865588
 30
0.0
 11
527.2799592766396
 21
349.8294442865588
 31
0.0
  0
LINE
  5
B9
330
AB
100
AcDbEntity
  8
0
  6
K5LT_BASIC
 62
     5
420
      255
370
    60
100
AcDbLine
 10
80.2799592766396
 20
312.8294442865588
 30
0.0
 11
527.2799592766396
 21
312.8294442865588
 31
0.0
  0
LINE
  5
BA
330
AB
100
AcDbEntity
  8
0
  6
K5LT_BASIC
 62
     5
420
      255
370
    60
100
AcDbLine
 10
80.2799592766396
 20
312.8294442865588
 30
0.0
 11
80.2799592766396
 21
468.8294442865588
 31
0.0
  0
LINE
  5
BB
330
AB
100
AcDbEntity
  8
0
  6
K5LT_THIN
 62
     7
370
    18
100
AcDbLine
 10
110.2799592766396
 20
312.8294442865588
 30
0.0
 11
110.2799592766396
 21
468.8294442865588
 31
0.0
  0
LINE
  5
BC
330
AB
100
AcDbEntity
  8
0
  6
K5LT_THIN
 62
     7
370
    18
100
AcDbLine
 10
145.2799592766396
 20
312.8294442865588
 30
0.0
 11
145.2799592766396
 21
468.8294442865588
 31
0.0
  0
LINE
  5
BD
330
AB
100
AcDbEntity
  8
0
  6
K5LT_THIN
 62
     7
370
    18
100
AcDbLine
 10
186.2799592766396
 20
312.8294442865588
 30
0.0
 11
186.2799592766396
 21
468.8294442865588
 31
0.0
  0
LINE
  5
BE
330
AB
100
AcDbEntity
  8
0
  6
K5LT_THIN
 62
     7
370
    18
100
AcDbLine
 10
227.2799592766396
 20
312.8294442865588
 30
0.0
 11
227.2799592766396
 21
468.8294442865588
 31
0.0
  0
LINE
  5
BF
330
AB
100
AcDbEntity
  8
0
  6
K5LT_THIN
 62
     7
370
    18
100
AcDbLine
 10
268.2799592766396
 20
312.8294442865588
 30
0.0
 11
268.2799592766396
 21
468.8294442865588
 31
0.0
  0
LINE
  5
C0
330
AB
100
AcDbEntity
  8
0
  6
K5LT_THIN
 62
     7
370
    18
100
AcDbLine
 10
308.2799592766396
 20
312.8294442865588
 30
0.0
 11
308.2799592766396
 21
468.8294442865588
 31
0.0
  0
LINE
  5
C1
330
AB
100
AcDbEntity
  8
0
  6
K5LT_THIN
 62
     7
370
    18
100
AcDbLine
 10
350.2799592766396
 20
312.8294442865588
 30
0.0
 11
350.2799592766396
 21
468.8294442865588
 31
0.0
  0
LINE
  5
C2
330
AB
100
AcDbEntity
  8
0
  6
K5LT_BASIC
 62
     5
420
      255
370
    60
100
AcDbLine
 10
527.2799592766396
 20
312.8294442865588
 30
0.0
 11
527.2799592766396
 21
468.8294442865588
 31
0.0
  0
LINE
  5
C3
330
AB
100
AcDbEntity
  8
0
  6
K5LT_THIN
 62
     7
370
    18
100
AcDbLine
 10
80.2799592766396
 20
337.8294442865588
 30
0.0
 11
110.2799592766396
 21
337.8294442865588
 31
0.0
  0
LINE
  5
C4
330
AB
100
AcDbEntity
  8
0
  6
K5LT_THIN
 62
     7
370
    18
100
AcDbLine
 10
110.2799592766396
 20
337.8294442865588
 30
0.0
 11
145.2799592766396
 21
337.8294442865588
 31
0.0
  0
LINE
  5
C5
330
AB
100
AcDbEntity
  8
0
  6
K5LT_THIN
 62
     7
370
    18
100
AcDbLine
 10
145.2799592766396
 20
337.8294442865588
 30
0.0
 11
186.2799592766396
 21
337.8294442865588
 31
0.0
  0
LINE
  5
C6
330
AB
100
AcDbEntity
  8
0
  6
K5LT_THIN
 62
     7
370
    18
100
AcDbLine
 10
186.2799592766396
 20
337.8294442865588
 30
0.0
 11
227.2799592766396
 21
337.8294442865588
 31
0.0
  0
LINE
  5
C7
330
AB
100
AcDbEntity
  8
0
  6
K5LT_THIN
 62
     7
370
    18
100
AcDbLine
 10
227.2799592766396
 20
337.8294442865588
 30
0.0
 11
268.2799592766396
 21
337.8294442865588
 31
0.0
  0
LINE
  5
C8
330
AB
100
AcDbEntity
  8
0
  6
K5LT_THIN
 62
     7
370
    18
100
AcDbLine
 10
268.2799592766396
 20
337.8294442865588
 30
0.0
 11
308.2799592766396
 21
337.8294442865588
 31
0.0
  0
LINE
  5
C9
330
AB
100
AcDbEntity
  8
0
  6
K5LT_THIN
 62
     7
370
    18
100
AcDbLine
 10
308.2799592766396
 20
337.8294442865588
 30
0.0
 11
350.2799592766396
 21
337.8294442865588
 31
0.0
  0
LINE
  5
CA
330
AB
100
AcDbEntity
  8
0
  6
K5LT_THIN
 62
     7
370
    18
100
AcDbLine
 10
350.2799592766396
 20
337.8294442865588
 30
0.0
 11
527.2799592766396
 21
337.8294442865588
 31
0.0
  0
LINE
  5
CB
330
AB
100
AcDbEntity
  8
0
  6
K5LT_THIN
 62
     7
370
    18
100
AcDbLine
 10
80.2799592766396
 20
325.8294442865588
 30
0.0
 11
110.2799592766396
 21
325.8294442865588
 31
0.0
  0
LINE
  5
CC
330
AB
100
AcDbEntity
  8
0
  6
K5LT_THIN
 62
     7
370
    18
100
AcDbLine
 10
110.2799592766396
 20
325.8294442865588
 30
0.0
 11
145.2799592766396
 21
325.8294442865588
 31
0.0
  0
LINE
  5
CD
330
AB
100
AcDbEntity
  8
0
  6
K5LT_THIN
 62
     7
370
    18
100
AcDbLine
 10
145.2799592766396
 20
325.8294442865588
 30
0.0
 11
186.2799592766396
 21
325.8294442865588
 31
0.0
  0
LINE
  5
CE
330
AB
100
AcDbEntity
  8
0
  6
K5LT_THIN
 62
     7
370
    18
100
AcDbLine
 10
186.2799592766396
 20
325.8294442865588
 30
0.0
 11
227.2799592766396
 21
325.8294442865588
 31
0.0
  0
LINE
  5
CF
330
AB
100
AcDbEntity
  8
0
  6
K5LT_THIN
 62
     7
370
    18
100
AcDbLine
 10
227.2799592766396
 20
325.8294442865588
 30
0.0
 11
268.2799592766396
 21
325.8294442865588
 31
0.0
  0
LINE
  5
D0
330
AB
100
AcDbEntity
  8
0
  6
K5LT_THIN
 62
     7
370
    18
100
AcDbLine
 10
268.2799592766396
 20
325.8294442865588
 30
0.0
 11
308.2799592766396
 21
325.8294442865588
 31
0.0
  0
LINE
  5
D1
330
AB
100
AcDbEntity
  8
0
  6
K5LT_THIN
 62
     7
370
    18
100
AcDbLine
 10
308.2799592766396
 20
325.8294442865588
 30
0.0
 11
350.2799592766396
 21
325.8294442865588
 31
0.0
  0
LINE
  5
D2
330
AB
100
AcDbEntity
  8
0
  6
K5LT_THIN
 62
     7
370
    18
100
AcDbLine
 10
350.2799592766396
 20
325.8294442865588
 30
0.0
 11
527.2799592766396
 21
325.8294442865588
 31
0.0
  0
LINE
  5
D3
330
AB
100
AcDbEntity
  8
0
  6
K5LT_THIN
 62
     7
370
    18
100
AcDbLine
 10
394.2799592766396
 20
453.8294442865588
 30
0.0
 11
394.2799592766396
 21
468.8294442865588
 31
0.0
  0
LINE
  5
D4
330
AB
100
AcDbEntity
  8
0
  6
K5LT_THIN
 62
     7
370
    18
100
AcDbLine
 10
394.2799592766396
 20
443.8294442865588
 30
0.0
 11
394.2799592766396
 21
453.8294442865588
 31
0.0
  0
LINE
  5
D5
330
AB
100
AcDbEntity
  8
0
  6
K5LT_THIN
 62
     7
370
    18
100
AcDbLine
 10
394.2799592766396
 20
433.8294442865588
 30
0.0
 11
394.2799592766396
 21
443.8294442865588
 31
0.0
  0
LINE
  5
D6
330
AB
100
AcDbEntity
  8
0
  6
K5LT_THIN
 62
     7
370
    18
100
AcDbLine
 10
394.2799592766396
 20
423.8294442865588
 30
0.0
 11
394.2799592766396
 21
433.8294442865588
 31
0.0
  0
LINE
  5
D7
330
AB
100
AcDbEntity
  8
0
  6
K5LT_THIN
 62
     7
370
    18
100
AcDbLine
 10
394.2799592766396
 20
411.8294442865588
 30
0.0
 11
394.2799592766396
 21
423.8294442865588
 31
0.0
  0
LINE
  5
D8
330
AB
100
AcDbEntity
  8
0
  6
K5LT_THIN
 62
     7
370
    18
100
AcDbLine
 10
394.2799592766396
 20
399.8294442865588
 30
0.0
 11
394.2799592766396
 21
411.8294442865588
 31
0.0
  0
LINE
  5
D9
330
AB
100
AcDbEntity
  8
0
  6
K5LT_THIN
 62
     7
370
    18
100
AcDbLine
 10
394.2799592766396
 20
387.8294442865588
 30
0.0
 11
394.2799592766396
 21
399.8294442865588
 31
0.0
  0
LINE
  5
DA
330
AB
100
AcDbEntity
  8
0
  6
K5LT_THIN
 62
     7
370
    18
100
AcDbLine
 10
394.2799592766396
 20
374.8294442865588
 30
0.0
 11
394.2799592766396
 21
387.8294442865588
 31
0.0
  0
LINE
  5
DB
330
AB
100
AcDbEntity
  8
0
  6
K5LT_THIN
 62
     7
370
    18
100
AcDbLine
 10
394.2799592766396
 20
361.8294442865588
 30
0.0
 11
394.2799592766396
 21
374.8294442865588
 31
0.0
  0
LINE
  5
DC
330
AB
100
AcDbEntity
  8
0
  6
K5LT_THIN
 62
     7
370
    18
100
AcDbLine
 10
394.2799592766396
 20
349.8294442865588
 30
0.0
 11
394.2799592766396
 21
361.8294442865588
 31
0.0
  0
LINE
  5
DD
330
AB
100
AcDbEntity
  8
0
  6
K5LT_THIN
 62
     7
370
    18
100
AcDbLine
 10
394.2799592766396
 20
337.8294442865588
 30
0.0
 11
394.2799592766396
 21
349.8294442865588
 31
0.0
  0
LINE
  5
DE
330
AB
100
AcDbEntity
  8
0
  6
K5LT_THIN
 62
     7
370
    18
100
AcDbLine
 10
394.2799592766396
 20
325.8294442865588
 30
0.0
 11
394.2799592766396
 21
337.8294442865588
 31
0.0
  0
LINE
  5
DF
330
AB
100
AcDbEntity
  8
0
  6
K5LT_THIN
 62
     7
370
    18
100
AcDbLine
 10
394.2799592766396
 20
312.8294442865588
 30
0.0
 11
394.2799592766396
 21
325.8294442865588
 31
0.0
  0
LINE
  5
E0
330
AB
100
AcDbEntity
  8
0
  6
K5LT_THIN
 62
     7
370
    18
100
AcDbLine
 10
437.2799592766396
 20
453.8294442865588
 30
0.0
 11
437.2799592766396
 21
468.8294442865588
 31
0.0
  0
LINE
  5
E1
330
AB
100
AcDbEntity
  8
0
  6
K5LT_THIN
 62
     7
370
    18
100
AcDbLine
 10
437.2799592766396
 20
443.8294442865588
 30
0.0
 11
437.2799592766396
 21
453.8294442865588
 31
0.0
  0
LINE
  5
E2
330
AB
100
AcDbEntity
  8
0
  6
K5LT_THIN
 62
     7
370
    18
100
AcDbLine
 10
437.2799592766396
 20
433.8294442865588
 30
0.0
 11
437.2799592766396
 21
443.8294442865588
 31
0.0
  0
LINE
  5
E3
330
AB
100
AcDbEntity
  8
0
  6
K5LT_THIN
 62
     7
370
    18
100
AcDbLine
 10
437.2799592766396
 20
423.8294442865588
 30
0.0
 11
437.2799592766396
 21
433.8294442865588
 31
0.0
  0
LINE
  5
E4
330
AB
100
AcDbEntity
  8
0
  6
K5LT_THIN
 62
     7
370
    18
100
AcDbLine
 10
437.2799592766396
 20
411.8294442865588
 30
0.0
 11
437.2799592766396
 21
423.8294442865588
 31
0.0
  0
LINE
  5
E5
330
AB
100
AcDbEntity
  8
0
  6
K5LT_THIN
 62
     7
370
    18
100
AcDbLine
 10
437.2799592766396
 20
399.8294442865588
 30
0.0
 11
437.2799592766396
 21
411.8294442865588
 31
0.0
  0
LINE
  5
E6
330
AB
100
AcDbEntity
  8
0
  6
K5LT_THIN
 62
     7
370
    18
100
AcDbLine
 10
437.2799592766396
 20
387.8294442865588
 30
0.0
 11
437.2799592766396
 21
399.8294442865588
 31
0.0
  0
LINE
  5
E7
330
AB
100
AcDbEntity
  8
0
  6
K5LT_THIN
 62
     7
370
    18
100
AcDbLine
 10
437.2799592766396
 20
374.8294442865588
 30
0.0
 11
437.2799592766396
 21
387.8294442865588
 31
0.0
  0
LINE
  5
E8
330
AB
100
AcDbEntity
  8
0
  6
K5LT_THIN
 62
     7
370
    18
100
AcDbLine
 10
437.2799592766396
 20
361.8294442865588
 30
0.0
 11
437.2799592766396
 21
374.8294442865588
 31
0.0
  0
LINE
  5
E9
330
AB
100
AcDbEntity
  8
0
  6
K5LT_THIN
 62
     7
370
    18
100
AcDbLine
 10
437.2799592766396
 20
349.8294442865588
 30
0.0
 11
437.2799592766396
 21
361.8294442865588
 31
0.0
  0
LINE
  5
EA
330
AB
100
AcDbEntity
  8
0
  6
K5LT_THIN
 62
     7
370
    18
100
AcDbLine
 10
437.2799592766396
 20
337.8294442865588
 30
0.0
 11
437.2799592766396
 21
349.8294442865588
 31
0.0
  0
LINE
  5
EB
330
AB
100
AcDbEntity
  8
0
  6
K5LT_THIN
 62
     7
370
    18
100
AcDbLine
 10
437.2799592766396
 20
325.8294442865588
 30
0.0
 11
437.2799592766396
 21
337.8294442865588
 31
0.0
  0
LINE
  5
EC
330
AB
100
AcDbEntity
  8
0
  6
K5LT_THIN
 62
     7
370
    18
100
AcDbLine
 10
437.2799592766396
 20
312.8294442865588
 30
0.0
 11
437.2799592766396
 21
325.8294442865588
 31
0.0
  0
LINE
  5
ED
330
AB
100
AcDbEntity
  8
0
  6
K5LT_THIN
 62
     7
370
    18
100
AcDbLine
 10
481.2799592766396
 20
453.8294442865588
 30
0.0
 11
481.2799592766396
 21
468.8294442865588
 31
0.0
  0
LINE
  5
EE
330
AB
100
AcDbEntity
  8
0
  6
K5LT_THIN
 62
     7
370
    18
100
AcDbLine
 10
481.2799592766396
 20
443.8294442865588
 30
0.0
 11
481.2799592766396
 21
453.8294442865588
 31
0.0
  0
LINE
  5
EF
330
AB
100
AcDbEntity
  8
0
  6
K5LT_THIN
 62
     7
370
    18
100
AcDbLine
 10
481.2799592766396
 20
433.8294442865588
 30
0.0
 11
481.2799592766396
 21
443.8294442865588
 31
0.0
  0
LINE
  5
F0
330
AB
100
AcDbEntity
  8
0
  6
K5LT_THIN
 62
     7
370
    18
100
AcDbLine
 10
481.2799592766396
 20
423.8294442865588
 30
0.0
 11
481.2799592766396
 21
433.8294442865588
 31
0.0
  0
LINE
  5
F1
330
AB
100
AcDbEntity
  8
0
  6
K5LT_THIN
 62
     7
370
    18
100
AcDbLine
 10
481.2799592766396
 20
411.8294442865588
 30
0.0
 11
481.2799592766396
 21
423.8294442865588
 31
0.0
  0
LINE
  5
F2
330
AB
100
AcDbEntity
  8
0
  6
K5LT_THIN
 62
     7
370
    18
100
AcDbLine
 10
481.2799592766396
 20
399.8294442865588
 30
0.0
 11
481.2799592766396
 21
411.8294442865588
 31
0.0
  0
LINE
  5
F3
330
AB
100
AcDbEntity
  8
0
  6
K5LT_THIN
 62
     7
370
    18
100
AcDbLine
 10
481.2799592766396
 20
387.8294442865588
 30
0.0
 11
481.2799592766396
 21
399.8294442865588
 31
0.0
  0
LINE
  5
F4
330
AB
100
AcDbEntity
  8
0
  6
K5LT_THIN
 62
     7
370
    18
100
AcDbLine
 10
481.2799592766396
 20
374.8294442865588
 30
0.0
 11
481.2799592766396
 21
387.8294442865588
 31
0.0
  0
LINE
  5
F5
330
AB
100
AcDbEntity
  8
0
  6
K5LT_THIN
 62
     7
370
    18
100
AcDbLine
 10
481.2799592766396
 20
361.8294442865588
 30
0.0
 11
481.2799592766396
 21
374.8294442865588
 31
0.0
  0
LINE
  5
F6
330
AB
100
AcDbEntity
  8
0
  6
K5LT_THIN
 62
     7
370
    18
100
AcDbLine
 10
481.2799592766396
 20
349.8294442865588
 30
0.0
 11
481.2799592766396
 21
361.8294442865588
 31
0.0
  0
LINE
  5
F7
330
AB
100
AcDbEntity
  8
0
  6
K5LT_THIN
 62
     7
370
    18
100
AcDbLine
 10
481.2799592766396
 20
337.8294442865588
 30
0.0
 11
481.2799592766396
 21
349.8294442865588
 31
0.0
  0
LINE
  5
F8
330
AB
100
AcDbEntity
  8
0
  6
K5LT_THIN
 62
     7
370
    18
100
AcDbLine
 10
481.2799592766396
 20
325.8294442865588
 30
0.0
 11
481.2799592766396
 21
337.8294442865588
 31
0.0
  0
LINE
  5
F9
330
AB
100
AcDbEntity
  8
0
  6
K5LT_THIN
 62
     7
370
    18
100
AcDbLine
 10
481.2799592766396
 20
312.8294442865588
 30
0.0
 11
481.2799592766396
 21
325.8294442865588
 31
0.0
  0
MTEXT
  5
FA
330
AB
100
AcDbEntity
  8
0
 62
     7
100
AcDbMText
 10
90.57960374685445
 20
464.982792255614
 30
0.0
 40
0.0
 41
0.0
 46
0.0
 71
     1
 72
     1
  1
\H3.5;\W0.965;\Q15;\Q15;\H7.00;№
  7
KTEXTSTYLE
 73
     1
 44
1.0
  0
MTEXT
  5
FB
330
AB
100
AcDbEntity
  8
0
 62
     7
100
AcDbMText
 10
117.8937726769082
 20
464.982792255614
 30
0.0
 40
0.0
 41
0.0
 46
0.0
 71
     1
 72
     1
  1
\H3.5;\W0.965;\Q15;\Q15;\H7.00;H, 
  7
KTEXTSTYLE
 73
     1
 44
1.0
  0
MTEXT
  5
FC
330
AB
100
AcDbEntity
  8
0
 62
     7
100
AcDbMText
 10
126.7837720665566
 20
464.982792255614
 30
0.0
 40
0.0
 41
0.0
 46
0.0
 71
     1
 72
     1
  1
\H3.5;\W0.965;\Q15;\Q15;\H7.00;км
  7
KTEXTSTYLE
 73
     1
 44
1.0
  0
MTEXT
  5
FD
330
AB
100
AcDbEntity
  8
0
 62
     7
100
AcDbMText
 10
152.4754396233193
 20
465.3654226038195
 30
0.0
 40
0.0
 41
0.0
 46
0.0
 71
     1
 72
     1
  1
\H3.5;\W0.965;\Q15;\Q15;\W0.956;\H7.00;μ
  7
KTEXTSTYLE
 73
     1
 44
1.0
  0
MTEXT
  5
FE
330
AB
100
AcDbEntity
  8
0
 62
     7
100
AcDbMText
 10
157.059007242643
 20
460.6042748663165
 30
0.0
 40
0.0
 41
0.0
 46
0.0
 71
     1
 72
     1
  1
\H3.5;\W0.965;\Q15;\Q15;\W0.956;\H4.67;рас
  7
KTEXTSTYLE
 73
     1
 44
1.0
  0
MTEXT
  5
FF
330
AB
100
AcDbEntity
  8
0
 62
     7
100
AcDbMText
 10
165.8177324089638
 20
465.3654226038195
 30
0.0
 40
0.0
 41
0.0
 46
0.0
 71
     1
 72
     1
  1
\H3.5;\W0.965;\Q15;\Q15;\W0.956;\H7.00; 
  7
KTEXTSTYLE
 73
     1
 44
1.0
  0
MTEXT
  5
100
330
AB
100
AcDbEntity
  8
0
 62
     7
100
AcDbMText
 10
168.5958581719033
 20
465.3654226038195
 30
0.0
 40
0.0
 41
0.0
 46
0.0
 71
     1
 72
     1
  1
\H3.5;\W0.965;\Q15;\Q15;\W0.956;\H7.00;, 
  7
KTEXTSTYLE
 73
     1
 44
1.0
  0
MTEXT
  5
101
330
AB
100
AcDbEntity
  8
0
 62
     7
100
AcDbMText
 10
172.8556504997841
 20
465.3654226038195
 30
0.0
 40
0.0
 41
0.0
 46
0.0
 71
     1
 72
     1
  1
\H3.5;\W0.965;\Q15;\Q15;\W0.956;\H7.00;с
  7
KTEXTSTYLE
 73
     1
 44
1.0
  0
MTEXT
  5
102
330
AB
100
AcDbEntity
  8
0
 62
     7
100
AcDbMText
 10
200.8337503227822
 20
465.8386300775744
 30
0.0
 40
0.0
 41
0.0
 46
0.0
 71
     1
 72
     1
  1
\H3.5;\W0.965;\Q15;\Q15;\H7.00;i
  7
KTEXTSTYLE
 73
     1
 44
1.0
  0
MTEXT
  5
103
330
AB
100
AcDbEntity
  8
0
 62
     7
100
AcDbMText
 10
201.8983588966958
 20
461.0774823400714
 30
0.0
 40
0.0
 41
0.0
 46
0.0
 71
     1
 72
     1
  1
\H3.5;\W0.965;\Q15;\Q15;\H4.67;рас
  7
KTEXTSTYLE
 73
     1
 44
1.0
  0
MTEXT
  5
104
330
AB
100
AcDbEntity
  8
0
 62
     7
100
AcDbMText
 10
232.7965913567177
 20
464.3294442865588
 30
0.0
 40
0.0
 41
0.0
 46
0.0
 71
     1
 72
     1
  1
\H3.5;\W0.965;\Q15;\Q15;\H7.00;υ
  7
KTEXTSTYLE
 73
     1
 44
1.0
  0
MTEXT
  5
105
330
AB
100
AcDbEntity
  8
0
 62
     7
100
AcDbMText
 10
237.1949497017495
 20
459.5682965490557
 30
0.0
 40
0.0
 41
0.0
 46
0.0
 71
     1
 72
     1
  1
\H3.5;\W0.965;\Q15;\Q15;\H4.67;рас
  7
KTEXTSTYLE
 73
     1
 44
1.0
  0
MTEXT
  5
106
330
AB
100
AcDbEntity
  8
0
 62
     7
100
AcDbMText
 10
246.3240915093056
 20
464.3294442865588
 30
0.0
 40
0.0
 41
0.0
 46
0.0
 71
     1
 72
     1
  1
\H3.5;\W0.965;\Q15;\Q15;\H7.00;, 
  7
KTEXTSTYLE
 73
     1
 44
1.0
  0
MTEXT
  5
107
330
AB
100
AcDbEntity
  8
0
 62
     7
100
AcDbMText
 10
253.2859063896767
 20
467.6283887598254
 30
0.0
 40
0.0
 41
0.0
 46
0.0
 71
     1
 72
     1
  1
\H3.5;\W0.965;\Q15;\Q15;\H4.67;рад
  7
KTEXTSTYLE
 73
     1
 44
1.0
  0
MTEXT
  5
108
330
AB
100
AcDbEntity
  8
0
 62
     7
100
AcDbMText
 10
251.9571729454628
 20
459.5682965490557
 30
0.0
 40
0.0
 41
0.0
 46
0.0
 71
     1
 72
     1
  1
\H3.5;\W0.965;\Q15;\Q15;\H4.67; с
  7
KTEXTSTYLE
 73
     1
 44
1.0
  0
LINE
  5
109
330
AB
100
AcDbEntity
  8
0
  6
K5LT_THIN
 62
     7
370
    18
100
AcDbLine
 10
252.5097585472695
 20
460.8294442865588
 30
0.0
 11
260.2885080132119
 21
460.8294442865588
 31
0.0
  0
MTEXT
  5
10A
330
AB
100
AcDbEntity
  8
0
 62
     7
100
AcDbMText
 10
274.9754396233193
 20
465.3654226038195
 30
0.0
 40
0.0
 41
0.0
 46
0.0
 71
     1
 72
     1
  1
\H3.5;\W0.965;\Q15;\Q15;\W0.956;\H7.00;μ
  7
KTEXTSTYLE
 73
     1
 44
1.0
  0
MTEXT
  5
10B
330
AB
100
AcDbEntity
  8
0
 62
     7
100
AcDbMText
 10
279.559007242643
 20
460.6042748663165
 30
0.0
 40
0.0
 41
0.0
 46
0.0
 71
     1
 72
     1
  1
\H3.5;\W0.965;\Q15;\Q15;\W0.956;\H4.67;кор
  7
KTEXTSTYLE
 73
     1
 44
1.0
  0
MTEXT
  5
10C
330
AB
100
AcDbEntity
  8
0
 62
     7
100
AcDbMText
 10
288.3177324089638
 20
465.3654226038195
 30
0.0
 40
0.0
 41
0.0
 46
0.0
 71
     1
 72
     1
  1
\H3.5;\W0.965;\Q15;\Q15;\W0.956;\H7.00; 
  7
KTEXTSTYLE
 73
     1
 44
1.0
  0
MTEXT
  5
10D
330
AB
100
AcDbEntity
  8
0
 62
     7
100
AcDbMText
 10
291.0958581719033
 20
465.3654226038195
 30
0.0
 40
0.0
 41
0.0
 46
0.0
 71
     1
 72
     1
  1
\H3.5;\W0.965;\Q15;\Q15;\W0.956;\H7.00;, 
  7
KTEXTSTYLE
 73
     1
 44
1.0
  0
MTEXT
  5
10E
330
AB
100
AcDbEntity
  8
0
 62
     7
100
AcDbMText
 10
295.3556504997841
 20
465.3654226038195
 30
0.0
 40
0.0
 41
0.0
 46
0.0
 71
     1
 72
     1
  1
\H3.5;\W0.965;\Q15;\Q15;\W0.956;\H7.00;с
  7
KTEXTSTYLE
 73
     1
 44
1.0
  0
MTEXT
  5
10F
330
AB
100
AcDbEntity
  8
0
 62
     7
100
AcDbMText
 10
323.3337503227822
 20
465.8386300775744
 30
0.0
 40
0.0
 41
0.0
 46
0.0
 71
     1
 72
     1
  1
\H3.5;\W0.965;\Q15;\Q15;\H7.00;i
  7
KTEXTSTYLE
 73
     1
 44
1.0
  0
MTEXT
  5
110
330
AB
100
AcDbEntity
  8
0
 62
     7
100
AcDbMText
 10
324.3983588966958
 20
461.0774823400714
 30
0.0
 40
0.0
 41
0.0
 46
0.0
 71
     1
 72
     1
  1
\H3.5;\W0.965;\Q15;\Q15;\H4.67;кор
  7
KTEXTSTYLE
 73
     1
 44
1.0
  0
MTEXT
  5
111
330
AB
100
AcDbEntity
  8
0
 62
     7
100
AcDbMText
 10
357.2965913567177
 20
464.3294442865588
 30
0.0
 40
0.0
 41
0.0
 46
0.0
 71
     1
 72
     1
  1
\H3.5;\W0.965;\Q15;\Q15;\H7.00;υ
  7
KTEXTSTYLE
 73
     1
 44
1.0
  0
MTEXT
  5
112
330
AB
100
AcDbEntity
  8
0
 62
     7
100
AcDbMText
 10
361.6949497017495
 20
459.5682965490557
 30
0.0
 40
0.0
 41
0.0
 46
0.0
 71
     1
 72
     1
  1
\H3.5;\W0.965;\Q15;\Q15;\H4.67;кор
  7
KTEXTSTYLE
 73
     1
 44
1.0
  0
MTEXT
  5
113
330
AB
100
AcDbEntity
  8
0
 62
     7
100
AcDbMText
 10
370.8240915093056
 20
464.3294442865588
 30
0.0
 40
0.0
 41
0.0
 46
0.0
 71
     1
 72
     1
  1
\H3.5;\W0.965;\Q15;\Q15;\H7.00;, 
  7
KTEXTSTYLE
 73
     1
 44
1.0
  0
MTEXT
  5
114
330
AB
100
AcDbEntity
  8
0
 62
     7
100
AcDbMText
 10
377.7859063896767
 20
467.6283887598254
 30
0.0
 40
0.0
 41
0.0
 46
0.0
 71
     1
 72
     1
  1
\H3.5;\W0.965;\Q15;\Q15;\H4.67;рад
  7
KTEXTSTYLE
 73
     1
 44
1.0
  0
MTEXT
  5
115
330
AB
100
AcDbEntity
  8
0
 62
     7
100
AcDbMText
 10
376.4571729454628
 20
459.5682965490557
 30
0.0
 40
0.0
 41
0.0
 46
0.0
 71
     1
 72
     1
  1
\H3.5;\W0.965;\Q15;\Q15;\H4.67; с
  7
KTEXTSTYLE
 73
     1
 44
1.0
  0
LINE
  5
116
330
AB
100
AcDbEntity
  8
0
  6
K5LT_THIN
 62
     7
370
    18
100
AcDbLine
 10
377.0097585472695
 20
460.8294442865588
 30
0.0
 11
384.7885080132119
 21
460.8294442865588
 31
0.0
  0
MTEXT
  5
117
330
AB
100
AcDbEntity
  8
0
 62
     7
100
AcDbMText
 10
403.7101655754677
 20
465.3654226038195
 30
0.0
 40
0.0
 41
0.0
 46
0.0
 71
     1
 72
     1
  1
\H3.5;\W0.965;\Q15;\Q15;\W0.956;\H7.00;μ
  7
KTEXTSTYLE
 73
     1
 44
1.0
  0
MTEXT
  5
118
330
AB
100
AcDbEntity
  8
0
 62
     7
100
AcDbMText
 10
408.2937331947915
 20
460.6042748663165
 30
0.0
 40
0.0
 41
0.0
 46
0.0
 71
     1
 72
     1
  1
\H3.5;\W0.965;\Q15;\Q15;\W0.956;\H4.67;ап
  7
KTEXTSTYLE
 73
     1
 44
1.0
  0
MTEXT
  5
119
330
AB
100
AcDbEntity
  8
0
 62
     7
100
AcDbMText
 10
414.5830140862099
 20
465.3654226038195
 30
0.0
 40
0.0
 41
0.0
 46
0.0
 71
     1
 72
     1
  1
\H3.5;\W0.965;\Q15;\Q15;\W0.956;\H7.00; 
  7
KTEXTSTYLE
 73
     1
 44
1.0
  0
MTEXT
  5
11A
330
AB
100
AcDbEntity
  8
0
 62
     7
100
AcDbMText
 10
417.3611398491494
 20
465.3654226038195
 30
0.0
 40
0.0
 41
0.0
 46
0.0
 71
     1
 72
     1
  1
\H3.5;\W0.965;\Q15;\Q15;\W0.956;\H7.00;, 
  7
KTEXTSTYLE
 73
     1
 44
1.0
  0
MTEXT
  5
11B
330
AB
100
AcDbEntity
  8
0
 62
     7
100
AcDbMText
 10
421.6209321770302
 20
465.3654226038195
 30
0.0
 40
0.0
 41
0.0
 46
0.0
 71
     1
 72
     1
  1
\H3.5;\W0.965;\Q15;\Q15;\W0.956;\H7.00;с
  7
KTEXTSTYLE
 73
     1
 44
1.0
  0
MTEXT
  5
11C
330
AB
100
AcDbEntity
  8
0
 62
     7
100
AcDbMText
 10
454.6302095207802
 20
465.8386300775744
 30
0.0
 40
0.0
 41
0.0
 46
0.0
 71
     1
 72
     1
  1
\H3.5;\W0.965;\Q15;\Q15;\H7.00;i
  7
KTEXTSTYLE
 73
     1
 44
1.0
  0
MTEXT
  5
11D
330
AB
100
AcDbEntity
  8
0
 62
     7
100
AcDbMText
 10
455.6948190483681
 20
461.0774823400714
 30
0.0
 40
0.0
 41
0.0
 46
0.0
 71
     1
 72
     1
  1
\H3.5;\W0.965;\Q15;\Q15;\H4.67;ап
  7
KTEXTSTYLE
 73
     1
 44
1.0
  0
MTEXT
  5
11E
330
AB
100
AcDbEntity
  8
0
 62
     7
100
AcDbMText
 10
490.593054369413
 20
464.3294442865588
 30
0.0
 40
0.0
 41
0.0
 46
0.0
 71
     1
 72
     1
  1
\H3.5;\W0.965;\Q15;\Q15;\H7.00;υ
  7
KTEXTSTYLE
 73
     1
 44
1.0
  0
MTEXT
  5
11F
330
AB
100
AcDbEntity
  8
0
 62
     7
100
AcDbMText
 10
494.9914127144448
 20
459.5682965490557
 30
0.0
 40
0.0
 41
0.0
 46
0.0
 71
     1
 72
     1
  1
\H3.5;\W0.965;\Q15;\Q15;\H4.67;ап
  7
KTEXTSTYLE
 73
     1
 44
1.0
  0
MTEXT
  5
120
330
AB
100
AcDbEntity
  8
0
 62
     7
100
AcDbMText
 10
501.5276361260048
 20
464.3294442865588
 30
0.0
 40
0.0
 41
0.0
 46
0.0
 71
     1
 72
     1
  1
\H3.5;\W0.965;\Q15;\Q15;\H7.00;, 
  7
KTEXTSTYLE
 73
     1
 44
1.0
  0
MTEXT
  5
121
330
AB
100
AcDbEntity
  8
0
 62
     7
100
AcDbMText
 10
508.4894510063759
 20
467.6283887598254
 30
0.0
 40
0.0
 41
0.0
 46
0.0
 71
     1
 72
     1
  1
\H3.5;\W0.965;\Q15;\Q15;\H4.67;рад
  7
KTEXTSTYLE
 73
     1
 44
1.0
  0
MTEXT
  5
122
330
AB
100
AcDbEntity
  8
0
 62
     7
100
AcDbMText
 10
507.1607175621621
 20
459.5682965490557
 30
0.0
 40
0.0
 41
0.0
 46
0.0
 71
     1
 72
     1
  1
\H3.5;\W0.965;\Q15;\Q15;\H4.67; с
  7
KTEXTSTYLE
 73
     1
 44
1.0
  0
LINE
  5
123
330
AB
100
AcDbEntity
  8
0
  6
K5LT_THIN
 62
     7
370
    18
100
AcDbLine
 10
507.7133031639687
 20
460.8294442865588
 30
0.0
 11
515.4920526299111
 21
460.8294442865588
 31
0.0
  0
MTEXT
  5
124
330
AB
100
AcDbEntity
  8
0
 62
     7
100
AcDbMText
 10
92.52429254385152
 20
452.4827913019396
 30
0.0
 40
0.0
 41
0.0
 46
0.0
 71
     1
 72
     1
  1
\H3.5;\W0.965;\Q15;\Q15;\H7.00;1
  7
KTEXTSTYLE
 73
     1
 44
1.0
  0
MTEXT
  5
125
330
AB
100
AcDbEntity
  8
0
 62
     7
100
AcDbMText
 10
124.2834592613808
 20
452.4827913019396
 30
0.0
 40
0.0
 41
0.0
 46
0.0
 71
     1
 72
     1
  1
\H3.5;\W0.965;\Q15;\Q15;\H7.00;0
  7
KTEXTSTYLE
 73
     1
 44
1.0
  0
MTEXT
  5
126
330
AB
100
AcDbEntity
  8
0
 62
     7
100
AcDbMText
 10
155.7085634026162
 20
452.4827913019396
 30
0.0
 40
0.0
 41
0.0
 46
0.0
 71
     1
 72
     1
  1
\H3.5;\W0.965;\Q15;\Q15;\H7.00;0,335
  7
KTEXTSTYLE
 73
     1
 44
1.0
  0
MTEXT
  5
127
330
AB
100
AcDbEntity
  8
0
 62
     7
100
AcDbMText
 10
197.1715837273232
 20
452.4827913019396
 30
0.0
 40
0.0
 41
0.0
 46
0.0
 71
     1
 72
     1
  1
\H3.5;\W0.965;\Q15;\Q15;\H7.00;1,534
  7
KTEXTSTYLE
 73
     1
 44
1.0
  0
MTEXT
  5
128
330
AB
100
AcDbEntity
  8
0
 62
     7
100
AcDbMText
 10
238.1715837273232
 20
452.4827913019396
 30
0.0
 40
0.0
 41
0.0
 46
0.0
 71
     1
 72
     1
  1
\H3.5;\W0.965;\Q15;\Q15;\H7.00;1,534
  7
KTEXTSTYLE
 73
     1
 44
1.0
  0
MTEXT
  5
129
330
AB
100
AcDbEntity
  8
0
 62
     7
100
AcDbMText
 10
277.3751283440224
 20
452.4827913019396
 30
0.0
 40
0.0
 41
0.0
 46
0.0
 71
     1
 72
     1
  1
\H3.5;\W0.965;\Q15;\Q15;\H7.00;0,098
  7
KTEXTSTYLE
 73
     1
 44
1.0
  0
MTEXT
  5
12A
330
AB
100
AcDbEntity
  8
0
 62
     7
100
AcDbMText
 10
318.3751283440224
 20
452.4827913019396
 30
0.0
 40
0.0
 41
0.0
 46
0.0
 71
     1
 72
     1
  1
\H3.5;\W0.965;\Q15;\Q15;\H7.00;0,676
  7
KTEXTSTYLE
 73
     1
 44
1.0
  0
MTEXT
  5
12B
330
AB
100
AcDbEntity
  8
0
 62
     7
100
AcDbMText
 10
361.6529374870888
 20
452.4827913019396
 30
0.0
 40
0.0
 41
0.0
 46
0.0
 71
     1
 72
     1
  1
\H3.5;\W0.965;\Q15;\Q15;\H7.00;0,527
  7
KTEXTSTYLE
 73
     1
 44
1.0
  0
MTEXT
  5
12C
330
AB
100
AcDbEntity
  8
0
 62
     7
100
AcDbMText
 10
405.8937745842568
 20
452.4827913019396
 30
0.0
 40
0.0
 41
0.0
 46
0.0
 71
     1
 72
     1
  1
\H3.5;\W0.965;\Q15;\Q15;\H7.00;0,341
  7
KTEXTSTYLE
 73
     1
 44
1.0
  0
MTEXT
  5
12D
330
AB
100
AcDbEntity
  8
0
 62
     7
100
AcDbMText
 10
448.6529374870888
 20
452.4827913019396
 30
0.0
 40
0.0
 41
0.0
 46
0.0
 71
     1
 72
     1
  1
\H3.5;\W0.965;\Q15;\Q15;\H7.00;0,838
  7
KTEXTSTYLE
 73
     1
 44
1.0
  0
MTEXT
  5
12E
330
AB
100
AcDbEntity
  8
0
 62
     7
100
AcDbMText
 10
493.6529374870888
 20
452.4827913019396
 30
0.0
 40
0.0
 41
0.0
 46
0.0
 71
     1
 72
     1
  1
\H3.5;\W0.965;\Q15;\Q15;\H7.00;0,527
  7
KTEXTSTYLE
 73
     1
 44
1.0
  0
MTEXT
  5
12F
330
AB
100
AcDbEntity
  8
0
 62
     7
100
AcDbMText
 10
91.78345926138081
 20
442.4827913019396
 30
0.0
 40
0.0
 41
0.0
 46
0.0
 71
     1
 72
     1
  1
\H3.5;\W0.965;\Q15;\Q15;\H7.00;2
  7
KTEXTSTYLE
 73
     1
 44
1.0
  0
MTEXT
  5
130
330
AB
100
AcDbEntity
  8
0
 62
     7
100
AcDbMText
 10
124.2834592613808
 20
442.4827913019396
 30
0.0
 40
0.0
 41
0.0
 46
0.0
 71
     1
 72
     1
  1
\H3.5;\W0.965;\Q15;\Q15;\H7.00;0
  7
KTEXTSTYLE
 73
     1
 44
1.0
  0
MTEXT
  5
131
330
AB
100
AcDbEntity
  8
0
 62
     7
100
AcDbMText
 10
155.4307504448525
 20
442.4827913019396
 30
0.0
 40
0.0
 41
0.0
 46
0.0
 71
     1
 72
     1
  1
\H3.5;\W0.965;\Q15;\Q15;\H7.00;0,033
  7
KTEXTSTYLE
 73
     1
 44
1.0
  0
MTEXT
  5
132
330
AB
100
AcDbEntity
  8
0
 62
     7
100
AcDbMText
 10
196.1529393944375
 20
442.4827913019396
 30
0.0
 40
0.0
 41
0.0
 46
0.0
 71
     1
 72
     1
  1
\H3.5;\W0.965;\Q15;\Q15;\H7.00;0,527
  7
KTEXTSTYLE
 73
     1
 44
1.0
  0
MTEXT
  5
133
330
AB
100
AcDbEntity
  8
0
 62
     7
100
AcDbMText
 10
237.1529374870888
 20
442.4827913019396
 30
0.0
 40
0.0
 41
0.0
 46
0.0
 71
     1
 72
     1
  1
\H3.5;\W0.965;\Q15;\Q15;\H7.00;0,527
  7
KTEXTSTYLE
 73
     1
 44
1.0
  0
MTEXT
  5
134
330
AB
100
AcDbEntity
  8
0
 62
     7
100
AcDbMText
 10
277.9307504448525
 20
442.4827913019396
 30
0.0
 40
0.0
 41
0.0
 46
0.0
 71
     1
 72
     1
  1
\H3.5;\W0.965;\Q15;\Q15;\H7.00;0,033
  7
KTEXTSTYLE
 73
     1
 44
1.0
  0
MTEXT
  5
135
330
AB
100
AcDbEntity
  8
0
 62
     7
100
AcDbMText
 10
318.6529374870888
 20
442.4827913019396
 30
0.0
 40
0.0
 41
0.0
 46
0.0
 71
     1
 72
     1
  1
\H3.5;\W0.965;\Q15;\Q15;\H7.00;0,527
  7
KTEXTSTYLE
 73
     1
 44
1.0
  0
MTEXT
  5
136
330
AB
100
AcDbEntity
  8
0
 62
     7
100
AcDbMText
 10
361.6529374870888
 20
442.4827913019396
 30
0.0
 40
0.0
 41
0.0
 46
0.0
 71
     1
 72
     1
  1
\H3.5;\W0.965;\Q15;\Q15;\H7.00;0,527
  7
KTEXTSTYLE
 73
     1
 44
1.0
  0
MTEXT
  5
137
330
AB
100
AcDbEntity
  8
0
 62
     7
100
AcDbMText
 10
405.8937745842568
 20
442.4827913019396
 30
0.0
 40
0.0
 41
0.0
 46
0.0
 71
     1
 72
     1
  1
\H3.5;\W0.965;\Q15;\Q15;\H7.00;0,341
  7
KTEXTSTYLE
 73
     1
 44
1.0
  0
MTEXT
  5
138
330
AB
100
AcDbEntity
  8
0
 62
     7
100
AcDbMText
 10
448.6529374870888
 20
442.4827913019396
 30
0.0
 40
0.0
 41
0.0
 46
0.0
 71
     1
 72
     1
  1
\H3.5;\W0.965;\Q15;\Q15;\H7.00;0,838
  7
KTEXTSTYLE
 73
     1
 44
1.0
  0
MTEXT
  5
139
330
AB
100
AcDbEntity
  8
0
 62
     7
100
AcDbMText
 10
493.6529374870888
 20
442.4827913019396
 30
0.0
 40
0.0
 41
0.0
 46
0.0
 71
     1
 72
     1
  1
\H3.5;\W0.965;\Q15;\Q15;\H7.00;0,527
  7
KTEXTSTYLE
 73
     1
 44
1.0
  0
MTEXT
  5
13A
330
AB
100
AcDbEntity
  8
0
 62
     7
100
AcDbMText
 10
92.06127031179585
 20
432.4827913019396
 30
0.0
 40
0.0
 41
0.0
 46
0.0
 71
     1
 72
     1
  1
\H3.5;\W0.965;\Q15;\Q15;\H7.00;3
  7
KTEXTSTYLE
 73
     1
 44
1.0
  0
MTEXT
  5
13B
330
AB
100
AcDbEntity
  8
0
 62
     7
100
AcDbMText
 10
124.2834592613808
 20
432.4827913019396
 30
0.0
 40
0.0
 41
0.0
 46
0.0
 71
     1
 72
     1
  1
\H3.5;\W0.965;\Q15;\Q15;\H7.00;0
  7
KTEXTSTYLE
 73
     1
 44
1.0
  0
MTEXT
  5
13C
330
AB
100
AcDbEntity
  8
0
 62
     7
100
AcDbMText
 10
162.2834592613808
 20
432.4827913019396
 30
0.0
 40
0.0
 41
0.0
 46
0.0
 71
     1
 72
     1
  1
\H3.5;\W0.965;\Q15;\Q15;\H7.00;0
  7
KTEXTSTYLE
 73
     1
 44
1.0
  0
MTEXT
  5
13D
330
AB
100
AcDbEntity
  8
0
 62
     7
100
AcDbMText
 10
195.8751264366738
 20
432.4827913019396
 30
0.0
 40
0.0
 41
0.0
 46
0.0
 71
     1
 72
     1
  1
\H3.5;\W0.965;\Q15;\Q15;\H7.00;0,806
  7
KTEXTSTYLE
 73
     1
 44
1.0
  0
MTEXT
  5
13E
330
AB
100
AcDbEntity
  8
0
 62
     7
100
AcDbMText
 10
236.8751283440224
 20
432.4827913019396
 30
0.0
 40
0.0
 41
0.0
 46
0.0
 71
     1
 72
     1
  1
\H3.5;\W0.965;\Q15;\Q15;\H7.00;0,806
  7
KTEXTSTYLE
 73
     1
 44
1.0
  0
MTEXT
  5
13F
330
AB
100
AcDbEntity
  8
0
 62
     7
100
AcDbMText
 10
284.7834592613808
 20
432.4827913019396
 30
0.0
 40
0.0
 41
0.0
 46
0.0
 71
     1
 72
     1
  1
\H3.5;\W0.965;\Q15;\Q15;\H7.00;0
  7
KTEXTSTYLE
 73
     1
 44
1.0
  0
MTEXT
  5
140
330
AB
100
AcDbEntity
  8
0
 62
     7
100
AcDbMText
 10
318.3751283440224
 20
432.4827913019396
 30
0.0
 40
0.0
 41
0.0
 46
0.0
 71
     1
 72
     1
  1
\H3.5;\W0.965;\Q15;\Q15;\H7.00;0,670
  7
KTEXTSTYLE
 73
     1
 44
1.0
  0
MTEXT
  5
141
330
AB
100
AcDbEntity
  8
0
 62
     7
100
AcDbMText
 10
361.6529374870888
 20
432.4827913019396
 30
0.0
 40
0.0
 41
0.0
 46
0.0
 71
     1
 72
     1
  1
\H3.5;\W0.965;\Q15;\Q15;\H7.00;0,527
  7
KTEXTSTYLE
 73
     1
 44
1.0
  0
MTEXT
  5
142
330
AB
100
AcDbEntity
  8
0
 62
     7
100
AcDbMText
 10
405.8937745842568
 20
432.4827913019396
 30
0.0
 40
0.0
 41
0.0
 46
0.0
 71
     1
 72
     1
  1
\H3.5;\W0.965;\Q15;\Q15;\H7.00;0,341
  7
KTEXTSTYLE
 73
     1
 44
1.0
  0
MTEXT
  5
143
330
AB
100
AcDbEntity
  8
0
 62
     7
100
AcDbMText
 10
448.6529374870888
 20
432.4827913019396
 30
0.0
 40
0.0
 41
0.0
 46
0.0
 71
     1
 72
     1
  1
\H3.5;\W0.965;\Q15;\Q15;\H7.00;0,838
  7
KTEXTSTYLE
 73
     1
 44
1.0
  0
MTEXT
  5
144
330
AB
100
AcDbEntity
  8
0
 62
     7
100
AcDbMText
 10
493.6529374870888
 20
432.4827913019396
 30
0.0
 40
0.0
 41
0.0
 46
0.0
 71
     1
 72
     1
  1
\H3.5;\W0.965;\Q15;\Q15;\H7.00;0,527
  7
KTEXTSTYLE
 73
     1
 44
1.0
  0
MTEXT
  5
145
330
AB
100
AcDbEntity
  8
0
 62
     7
100
AcDbMText
 10
91.78345926138081
 20
421.4827913019396
 30
0.0
 40
0.0
 41
0.0
 46
0.0
 71
     1
 72
     1
  1
\H3.5;\W0.965;\Q15;\Q15;\H7.00;4
  7
KTEXTSTYLE
 73
     1
 44
1.0
  0
MTEXT
  5
146
330
AB
100
AcDbEntity
  8
0
 62
     7
100
AcDbMText
 10
124.5612703117959
 20
421.4827913019396
 30
0.0
 40
0.0
 41
0.0
 46
0.0
 71
     1
 72
     1
  1
\H3.5;\W0.965;\Q15;\Q15;\H7.00;5
  7
KTEXTSTYLE
 73
     1
 44
1.0
  0
MTEXT
  5
147
330
AB
100
AcDbEntity
  8
0
 62
     7
100
AcDbMText
 10
155.1529393944375
 20
421.4827913019396
 30
0.0
 40
0.0
 41
0.0
 46
0.0
 71
     1
 72
     1
  1
\H3.5;\W0.965;\Q15;\Q15;\H7.00;0,737
  7
KTEXTSTYLE
 73
     1
 44
1.0
  0
MTEXT
  5
148
330
AB
100
AcDbEntity
  8
0
 62
     7
100
AcDbMText
 10
196.6159597191445
 20
421.4827913019396
 30
0.0
 40
0.0
 41
0.0
 46
0.0
 71
     1
 72
     1
  1
\H3.5;\W0.965;\Q15;\Q15;\H7.00;2,761
  7
KTEXTSTYLE
 73
     1
 44
1.0
  0
MTEXT
  5
149
330
AB
100
AcDbEntity
  8
0
 62
     7
100
AcDbMText
 10
237.6159578117959
 20
421.4827913019396
 30
0.0
 40
0.0
 41
0.0
 46
0.0
 71
     1
 72
     1
  1
\H3.5;\W0.965;\Q15;\Q15;\H7.00;2,761
  7
KTEXTSTYLE
 73
     1
 44
1.0
  0
MTEXT
  5
14A
330
AB
100
AcDbEntity
  8
0
 62
     7
100
AcDbMText
 10
278.1159578117959
 20
421.4827913019396
 30
0.0
 40
0.0
 41
0.0
 46
0.0
 71
     1
 72
     1
  1
\H3.5;\W0.965;\Q15;\Q15;\H7.00;0,241
  7
KTEXTSTYLE
 73
     1
 44
1.0
  0
MTEXT
  5
14B
330
AB
100
AcDbEntity
  8
0
 62
     7
100
AcDbMText
 10
318.6529374870888
 20
421.4827913019396
 30
0.0
 40
0.0
 41
0.0
 46
0.0
 71
     1
 72
     1
  1
\H3.5;\W0.965;\Q15;\Q15;\H7.00;0,838
  7
KTEXTSTYLE
 73
     1
 44
1.0
  0
MTEXT
  5
14C
330
AB
100
AcDbEntity
  8
0
 62
     7
100
AcDbMText
 10
361.6529374870888
 20
421.4827913019396
 30
0.0
 40
0.0
 41
0.0
 46
0.0
 71
     1
 72
     1
  1
\H3.5;\W0.965;\Q15;\Q15;\H7.00;0,527
  7
KTEXTSTYLE
 73
     1
 44
1.0
  0
MTEXT
  5
14D
330
AB
100
AcDbEntity
  8
0
 62
     7
100
AcDbMText
 10
405.8937745842568
 20
421.4827913019396
 30
0.0
 40
0.0
 41
0.0
 46
0.0
 71
     1
 72
     1
  1
\H3.5;\W0.965;\Q15;\Q15;\H7.00;0,341
  7
KTEXTSTYLE
 73
     1
 44
1.0
  0
MTEXT
  5
14E
330
AB
100
AcDbEntity
  8
0
 62
     7
100
AcDbMText
 10
448.6529374870888
 20
421.4827913019396
 30
0.0
 40
0.0
 41
0.0
 46
0.0
 71
     1
 72
     1
  1
\H3.5;\W0.965;\Q15;\Q15;\H7.00;0,838
  7
KTEXTSTYLE
 73
     1
 44
1.0
  0
MTEXT
  5
14F
330
AB
100
AcDbEntity
  8
0
 62
     7
100
AcDbMText
 10
493.6529374870888
 20
421.4827913019396
 30
0.0
 40
0.0
 41
0.0
 46
0.0
 71
     1
 72
     1
  1
\H3.5;\W0.965;\Q15;\Q15;\H7.00;0,527
  7
KTEXTSTYLE
 73
     1
 44
1.0
  0
MTEXT
  5
150
330
AB
100
AcDbEntity
  8
0
 62
     7
100
AcDbMText
 10
92.06127031179585
 20
409.4827951166369
 30
0.0
 40
0.0
 41
0.0
 46
0.0
 71
     1
 72
     1
  1
\H3.5;\W0.965;\Q15;\Q15;\H7.00;5
  7
KTEXTSTYLE
 73
     1
 44
1.0
  0
MTEXT
  5
151
330
AB
100
AcDbEntity
  8
0
 62
     7
100
AcDbMText
 10
124.5612703117959
 20
409.4827951166369
 30
0.0
 40
0.0
 41
0.0
 46
0.0
 71
     1
 72
     1
  1
\H3.5;\W0.965;\Q15;\Q15;\H7.00;5
  7
KTEXTSTYLE
 73
     1
 44
1.0
  0
MTEXT
  5
152
330
AB
100
AcDbEntity
  8
0
 62
     7
100
AcDbMText
 10
154.8751264366738
 20
409.4827951166369
 30
0.0
 40
0.0
 41
0.0
 46
0.0
 71
     1
 72
     1
  1
\H3.5;\W0.965;\Q15;\Q15;\H7.00;0,077
  7
KTEXTSTYLE
 73
     1
 44
1.0
  0
MTEXT
  5
153
330
AB
100
AcDbEntity
  8
0
 62
     7
100
AcDbMText
 10
197.3567930016152
 20
409.4827951166369
 30
0.0
 40
0.0
 41
0.0
 46
0.0
 71
     1
 72
     1
  1
\H3.5;\W0.965;\Q15;\Q15;\H7.00;1,179
  7
KTEXTSTYLE
 73
     1
 44
1.0
  0
MTEXT
  5
154
330
AB
100
AcDbEntity
  8
0
 62
     7
100
AcDbMText
 10
238.3567949089638
 20
409.4827951166369
 30
0.0
 40
0.0
 41
0.0
 46
0.0
 71
     1
 72
     1
  1
\H3.5;\W0.965;\Q15;\Q15;\H7.00;1,179
  7
KTEXTSTYLE
 73
     1
 44
1.0
  0
MTEXT
  5
155
330
AB
100
AcDbEntity
  8
0
 62
     7
100
AcDbMText
 10
277.9307504448525
 20
409.4827951166369
 30
0.0
 40
0.0
 41
0.0
 46
0.0
 71
     1
 72
     1
  1
\H3.5;\W0.965;\Q15;\Q15;\H7.00;0,033
  7
KTEXTSTYLE
 73
     1
 44
1.0
  0
MTEXT
  5
156
330
AB
100
AcDbEntity
  8
0
 62
     7
100
AcDbMText
 10
318.3751283440224
 20
409.4827951166369
 30
0.0
 40
0.0
 41
0.0
 46
0.0
 71
     1
 72
     1
  1
\H3.5;\W0.965;\Q15;\Q15;\H7.00;0,777
  7
KTEXTSTYLE
 73
     1
 44
1.0
  0
MTEXT
  5
157
330
AB
100
AcDbEntity
  8
0
 62
     7
100
AcDbMText
 10
361.6529374870888
 20
409.4827951166369
 30
0.0
 40
0.0
 41
0.0
 46
0.0
 71
     1
 72
     1
  1
\H3.5;\W0.965;\Q15;\Q15;\H7.00;0,527
  7
KTEXTSTYLE
 73
     1
 44
1.0
  0
MTEXT
  5
158
330
AB
100
AcDbEntity
  8
0
 62
     7
100
AcDbMText
 10
405.8937745842568
 20
409.4827951166369
 30
0.0
 40
0.0
 41
0.0
 46
0.0
 71
     1
 72
     1
  1
\H3.5;\W0.965;\Q15;\Q15;\H7.00;0,341
  7
KTEXTSTYLE
 73
     1
 44
1.0
  0
MTEXT
  5
159
330
AB
100
AcDbEntity
  8
0
 62
     7
100
AcDbMText
 10
448.6529374870888
 20
409.4827951166369
 30
0.0
 40
0.0
 41
0.0
 46
0.0
 71
     1
 72
     1
  1
\H3.5;\W0.965;\Q15;\Q15;\H7.00;0,838
  7
KTEXTSTYLE
 73
     1
 44
1.0
  0
MTEXT
  5
15A
330
AB
100
AcDbEntity
  8
0
 62
     7
100
AcDbMText
 10
493.6529374870888
 20
409.4827951166369
 30
0.0
 40
0.0
 41
0.0
 46
0.0
 71
     1
 72
     1
  1
\H3.5;\W0.965;\Q15;\Q15;\H7.00;0,527
  7
KTEXTSTYLE
 73
     1
 44
1.0
  0
MTEXT
  5
15B
330
AB
100
AcDbEntity
  8
0
 62
     7
100
AcDbMText
 10
91.78345926138081
 20
397.4827951166369
 30
0.0
 40
0.0
 41
0.0
 46
0.0
 71
     1
 72
     1
  1
\H3.5;\W0.965;\Q15;\Q15;\H7.00;6
  7
KTEXTSTYLE
 73
     1
 44
1.0
  0
MTEXT
  5
15C
330
AB
100
AcDbEntity
  8
0
 62
     7
100
AcDbMText
 10
122.8017926964394
 20
397.4827951166369
 30
0.0
 40
0.0
 41
0.0
 46
0.0
 71
     1
 72
     1
  1
\H3.5;\W0.965;\Q15;\Q15;\H7.00;10
  7
KTEXTSTYLE
 73
     1
 44
1.0
  0
MTEXT
  5
15D
330
AB
100
AcDbEntity
  8
0
 62
     7
100
AcDbMText
 10
155.4307504448525
 20
397.4827951166369
 30
0.0
 40
0.0
 41
0.0
 46
0.0
 71
     1
 72
     1
  1
\H3.5;\W0.965;\Q15;\Q15;\H7.00;0,354
  7
KTEXTSTYLE
 73
     1
 44
1.0
  0
MTEXT
  5
15E
330
AB
100
AcDbEntity
  8
0
 62
     7
100
AcDbMText
 10
196.6159597191445
 20
397.4827951166369
 30
0.0
 40
0.0
 41
0.0
 46
0.0
 71
     1
 72
     1
  1
\H3.5;\W0.965;\Q15;\Q15;\H7.00;1,406
  7
KTEXTSTYLE
 73
     1
 44
1.0
  0
MTEXT
  5
15F
330
AB
100
AcDbEntity
  8
0
 62
     7
100
AcDbMText
 10
237.6159578117959
 20
397.4827951166369
 30
0.0
 40
0.0
 41
0.0
 46
0.0
 71
     1
 72
     1
  1
\H3.5;\W0.965;\Q15;\Q15;\H7.00;1,406
  7
KTEXTSTYLE
 73
     1
 44
1.0
  0
MTEXT
  5
160
330
AB
100
AcDbEntity
  8
0
 62
     7
100
AcDbMText
 10
278.1159578117959
 20
397.4827951166369
 30
0.0
 40
0.0
 41
0.0
 46
0.0
 71
     1
 72
     1
  1
\H3.5;\W0.965;\Q15;\Q15;\H7.00;0,144
  7
KTEXTSTYLE
 73
     1
 44
1.0
  0
MTEXT
  5
161
330
AB
100
AcDbEntity
  8
0
 62
     7
100
AcDbMText
 10
318.3751283440224
 20
397.4827951166369
 30
0.0
 40
0.0
 41
0.0
 46
0.0
 71
     1
 72
     1
  1
\H3.5;\W0.965;\Q15;\Q15;\H7.00;0,660
  7
KTEXTSTYLE
 73
     1
 44
1.0
  0
MTEXT
  5
162
330
AB
100
AcDbEntity
  8
0
 62
     7
100
AcDbMText
 10
361.6529374870888
 20
397.4827951166369
 30
0.0
 40
0.0
 41
0.0
 46
0.0
 71
     1
 72
     1
  1
\H3.5;\W0.965;\Q15;\Q15;\H7.00;0,527
  7
KTEXTSTYLE
 73
     1
 44
1.0
  0
MTEXT
  5
163
330
AB
100
AcDbEntity
  8
0
 62
     7
100
AcDbMText
 10
405.8937745842568
 20
397.4827951166369
 30
0.0
 40
0.0
 41
0.0
 46
0.0
 71
     1
 72
     1
  1
\H3.5;\W0.965;\Q15;\Q15;\H7.00;0,341
  7
KTEXTSTYLE
 73
     1
 44
1.0
  0
MTEXT
  5
164
330
AB
100
AcDbEntity
  8
0
 62
     7
100
AcDbMText
 10
448.6529374870888
 20
397.4827951166369
 30
0.0
 40
0.0
 41
0.0
 46
0.0
 71
     1
 72
     1
  1
\H3.5;\W0.965;\Q15;\Q15;\H7.00;0,838
  7
KTEXTSTYLE
 73
     1
 44
1.0
  0
MTEXT
  5
165
330
AB
100
AcDbEntity
  8
0
 62
     7
100
AcDbMText
 10
493.6529374870888
 20
397.4827951166369
 30
0.0
 40
0.0
 41
0.0
 46
0.0
 71
     1
 72
     1
  1
\H3.5;\W0.965;\Q15;\Q15;\H7.00;0,527
  7
KTEXTSTYLE
 73
     1
 44
1.0
  0
MTEXT
  5
166
330
AB
100
AcDbEntity
  8
0
 62
     7
100
AcDbMText
 10
91.78345926138081
 20
384.9827951166369
 30
0.0
 40
0.0
 41
0.0
 46
0.0
 71
     1
 72
     1
  1
\H3.5;\W0.965;\Q15;\Q15;\H7.00;7
  7
KTEXTSTYLE
 73
     1
 44
1.0
  0
MTEXT
  5
167
330
AB
100
AcDbEntity
  8
0
 62
     7
100
AcDbMText
 10
122.8017926964394
 20
384.9827951166369
 30
0.0
 40
0.0
 41
0.0
 46
0.0
 71
     1
 72
     1
  1
\H3.5;\W0.965;\Q15;\Q15;\H7.00;10
  7
KTEXTSTYLE
 73
     1
 44
1.0
  0
MTEXT
  5
168
330
AB
100
AcDbEntity
  8
0
 62
     7
100
AcDbMText
 10
155.1529393944375
 20
384.9827951166369
 30
0.0
 40
0.0
 41
0.0
 46
0.0
 71
     1
 72
     1
  1
\H3.5;\W0.965;\Q15;\Q15;\H7.00;0,306
  7
KTEXTSTYLE
 73
     1
 44
1.0
  0
MTEXT
  5
169
330
AB
100
AcDbEntity
  8
0
 62
     7
100
AcDbMText
 10
196.8937726769082
 20
384.9827951166369
 30
0.0
 40
0.0
 41
0.0
 46
0.0
 71
     1
 72
     1
  1
\H3.5;\W0.965;\Q15;\Q15;\H7.00;1,588
  7
KTEXTSTYLE
 73
     1
 44
1.0
  0
MTEXT
  5
16A
330
AB
100
AcDbEntity
  8
0
 62
     7
100
AcDbMText
 10
237.8937745842568
 20
384.9827951166369
 30
0.0
 40
0.0
 41
0.0
 46
0.0
 71
     1
 72
     1
  1
\H3.5;\W0.965;\Q15;\Q15;\H7.00;1,588
  7
KTEXTSTYLE
 73
     1
 44
1.0
  0
MTEXT
  5
16B
330
AB
100
AcDbEntity
  8
0
 62
     7
100
AcDbMText
 10
277.6529374870888
 20
384.9827951166369
 30
0.0
 40
0.0
 41
0.0
 46
0.0
 71
     1
 72
     1
  1
\H3.5;\W0.965;\Q15;\Q15;\H7.00;0,058
  7
KTEXTSTYLE
 73
     1
 44
1.0
  0
MTEXT
  5
16C
330
AB
100
AcDbEntity
  8
0
 62
     7
100
AcDbMText
 10
318.6529374870888
 20
384.9827951166369
 30
0.0
 40
0.0
 41
0.0
 46
0.0
 71
     1
 72
     1
  1
\H3.5;\W0.965;\Q15;\Q15;\H7.00;0,683
  7
KTEXTSTYLE
 73
     1
 44
1.0
  0
MTEXT
  5
16D
330
AB
100
AcDbEntity
  8
0
 62
     7
100
AcDbMText
 10
361.6529374870888
 20
384.9827951166369
 30
0.0
 40
0.0
 41
0.0
 46
0.0
 71
     1
 72
     1
  1
\H3.5;\W0.965;\Q15;\Q15;\H7.00;0,527
  7
KTEXTSTYLE
 73
     1
 44
1.0
  0
MTEXT
  5
16E
330
AB
100
AcDbEntity
  8
0
 62
     7
100
AcDbMText
 10
405.8937745842568
 20
384.9827951166369
 30
0.0
 40
0.0
 41
0.0
 46
0.0
 71
     1
 72
     1
  1
\H3.5;\W0.965;\Q15;\Q15;\H7.00;0,341
  7
KTEXTSTYLE
 73
     1
 44
1.0
  0
MTEXT
  5
16F
330
AB
100
AcDbEntity
  8
0
 62
     7
100
AcDbMText
 10
448.6529374870888
 20
384.9827951166369
 30
0.0
 40
0.0
 41
0.0
 46
0.0
 71
     1
 72
     1
  1
\H3.5;\W0.965;\Q15;\Q15;\H7.00;0,838
  7
KTEXTSTYLE
 73
     1
 44
1.0
  0
MTEXT
  5
170
330
AB
100
AcDbEntity
  8
0
 62
     7
100
AcDbMText
 10
493.6529374870888
 20
384.9827951166369
 30
0.0
 40
0.0
 41
0.0
 46
0.0
 71
     1
 72
     1
  1
\H3.5;\W0.965;\Q15;\Q15;\H7.00;0,527
  7
KTEXTSTYLE
 73
     1
 44
1.0
  0
MTEXT
  5
171
330
AB
100
AcDbEntity
  8
0
 62
     7
100
AcDbMText
 10
91.78345926138081
 20
371.9827951166369
 30
0.0
 40
0.0
 41
0.0
 46
0.0
 71
     1
 72
     1
  1
\H3.5;\W0.965;\Q15;\Q15;\H7.00;8
  7
KTEXTSTYLE
 73
     1
 44
1.0
  0
MTEXT
  5
172
330
AB
100
AcDbEntity
  8
0
 62
     7
100
AcDbMText
 10
122.8017926964394
 20
371.9827951166369
 30
0.0
 40
0.0
 41
0.0
 46
0.0
 71
     1
 72
     1
  1
\H3.5;\W0.965;\Q15;\Q15;\H7.00;10
  7
KTEXTSTYLE
 73
     1
 44
1.0
  0
MTEXT
  5
173
330
AB
100
AcDbEntity
  8
0
 62
     7
100
AcDbMText
 10
155.8937726769082
 20
371.9827951166369
 30
0.0
 40
0.0
 41
0.0
 46
0.0
 71
     1
 72
     1
  1
\H3.5;\W0.965;\Q15;\Q15;\H7.00;0,319
  7
KTEXTSTYLE
 73
     1
 44
1.0
  0
MTEXT
  5
174
330
AB
100
AcDbEntity
  8
0
 62
     7
100
AcDbMText
 10
196.6159597191445
 20
371.9827951166369
 30
0.0
 40
0.0
 41
0.0
 46
0.0
 71
     1
 72
     1
  1
\H3.5;\W0.965;\Q15;\Q15;\H7.00;1,698
  7
KTEXTSTYLE
 73
     1
 44
1.0
  0
MTEXT
  5
175
330
AB
100
AcDbEntity
  8
0
 62
     7
100
AcDbMText
 10
237.6159578117959
 20
371.9827951166369
 30
0.0
 40
0.0
 41
0.0
 46
0.0
 71
     1
 72
     1
  1
\H3.5;\W0.965;\Q15;\Q15;\H7.00;1,698
  7
KTEXTSTYLE
 73
     1
 44
1.0
  0
MTEXT
  5
176
330
AB
100
AcDbEntity
  8
0
 62
     7
100
AcDbMText
 10
277.3751283440224
 20
371.9827951166369
 30
0.0
 40
0.0
 41
0.0
 46
0.0
 71
     1
 72
     1
  1
\H3.5;\W0.965;\Q15;\Q15;\H7.00;0,048
  7
KTEXTSTYLE
 73
     1
 44
1.0
  0
MTEXT
  5
177
330
AB
100
AcDbEntity
  8
0
 62
     7
100
AcDbMText
 10
318.3751283440224
 20
371.9827951166369
 30
0.0
 40
0.0
 41
0.0
 46
0.0
 71
     1
 72
     1
  1
\H3.5;\W0.965;\Q15;\Q15;\H7.00;0,698
  7
KTEXTSTYLE
 73
     1
 44
1.0
  0
MTEXT
  5
178
330
AB
100
AcDbEntity
  8
0
 62
     7
100
AcDbMText
 10
361.6529374870888
 20
371.9827951166369
 30
0.0
 40
0.0
 41
0.0
 46
0.0
 71
     1
 72
     1
  1
\H3.5;\W0.965;\Q15;\Q15;\H7.00;0,527
  7
KTEXTSTYLE
 73
     1
 44
1.0
  0
MTEXT
  5
179
330
AB
100
AcDbEntity
  8
0
 62
     7
100
AcDbMText
 10
405.8937745842568
 20
371.9827951166369
 30
0.0
 40
0.0
 41
0.0
 46
0.0
 71
     1
 72
     1
  1
\H3.5;\W0.965;\Q15;\Q15;\H7.00;0,341
  7
KTEXTSTYLE
 73
     1
 44
1.0
  0
MTEXT
  5
17A
330
AB
100
AcDbEntity
  8
0
 62
     7
100
AcDbMText
 10
448.6529374870888
 20
371.9827951166369
 30
0.0
 40
0.0
 41
0.0
 46
0.0
 71
     1
 72
     1
  1
\H3.5;\W0.965;\Q15;\Q15;\H7.00;0,838
  7
KTEXTSTYLE
 73
     1
 44
1.0
  0
MTEXT
  5
17B
330
AB
100
AcDbEntity
  8
0
 62
     7
100
AcDbMText
 10
493.6529374870888
 20
371.9827951166369
 30
0.0
 40
0.0
 41
0.0
 46
0.0
 71
     1
 72
     1
  1
\H3.5;\W0.965;\Q15;\Q15;\H7.00;0,527
  7
KTEXTSTYLE
 73
     1
 44
1.0
  0
MTEXT
  5
17C
330
AB
100
AcDbEntity
  8
0
 62
     7
100
AcDbMText
 10
91.78345926138081
 20
359.4827951166369
 30
0.0
 40
0.0
 41
0.0
 46
0.0
 71
     1
 72
     1
  1
\H3.5;\W0.965;\Q15;\Q15;\H7.00;9
  7
KTEXTSTYLE
 73
     1
 44
1.0
  0
MTEXT
  5
17D
330
AB
100
AcDbEntity
  8
0
 62
     7
100
AcDbMText
 10
123.0796037468544
 20
359.4827951166369
 30
0.0
 40
0.0
 41
0.0
 46
0.0
 71
     1
 72
     1
  1
\H3.5;\W0.965;\Q15;\Q15;\H7.00;15
  7
KTEXTSTYLE
 73
     1
 44
1.0
  0
MTEXT
  5
17E
330
AB
100
AcDbEntity
  8
0
 62
     7
100
AcDbMText
 10
154.8751264366738
 20
359.4827951166369
 30
0.0
 40
0.0
 41
0.0
 46
0.0
 71
     1
 72
     1
  1
\H3.5;\W0.965;\Q15;\Q15;\H7.00;0,898
  7
KTEXTSTYLE
 73
     1
 44
1.0
  0
MTEXT
  5
17F
330
AB
100
AcDbEntity
  8
0
 62
     7
100
AcDbMText
 10
196.1529393944375
 20
359.4827951166369
 30
0.0
 40
0.0
 41
0.0
 46
0.0
 71
     1
 72
     1
  1
\H3.5;\W0.965;\Q15;\Q15;\H7.00;3,047
  7
KTEXTSTYLE
 73
     1
 44
1.0
  0
MTEXT
  5
180
330
AB
100
AcDbEntity
  8
0
 62
     7
100
AcDbMText
 10
237.1529374870888
 20
359.4827951166369
 30
0.0
 40
0.0
 41
0.0
 46
0.0
 71
     1
 72
     1
  1
\H3.5;\W0.965;\Q15;\Q15;\H7.00;3,047
  7
KTEXTSTYLE
 73
     1
 44
1.0
  0
MTEXT
  5
181
330
AB
100
AcDbEntity
  8
0
 62
     7
100
AcDbMText
 10
278.3937745842568
 20
359.4827951166369
 30
0.0
 40
0.0
 41
0.0
 46
0.0
 71
     1
 72
     1
  1
\H3.5;\W0.965;\Q15;\Q15;\H7.00;0,341
  7
KTEXTSTYLE
 73
     1
 44
1.0
  0
MTEXT
  5
182
330
AB
100
AcDbEntity
  8
0
 62
     7
100
AcDbMText
 10
318.3751283440224
 20
359.4827951166369
 30
0.0
 40
0.0
 41
0.0
 46
0.0
 71
     1
 72
     1
  1
\H3.5;\W0.965;\Q15;\Q15;\H7.00;0,870
  7
KTEXTSTYLE
 73
     1
 44
1.0
  0
MTEXT
  5
183
330
AB
100
AcDbEntity
  8
0
 62
     7
100
AcDbMText
 10
361.6529374870888
 20
359.4827951166369
 30
0.0
 40
0.0
 41
0.0
 46
0.0
 71
     1
 72
     1
  1
\H3.5;\W0.965;\Q15;\Q15;\H7.00;0,527
  7
KTEXTSTYLE
 73
     1
 44
1.0
  0
MTEXT
  5
184
330
AB
100
AcDbEntity
  8
0
 62
     7
100
AcDbMText
 10
405.8937745842568
 20
359.4827951166369
 30
0.0
 40
0.0
 41
0.0
 46
0.0
 71
     1
 72
     1
  1
\H3.5;\W0.965;\Q15;\Q15;\H7.00;0,341
  7
KTEXTSTYLE
 73
     1
 44
1.0
  0
MTEXT
  5
185
330
AB
100
AcDbEntity
  8
0
 62
     7
100
AcDbMText
 10
448.6529374870888
 20
359.4827951166369
 30
0.0
 40
0.0
 41
0.0
 46
0.0
 71
     1
 72
     1
  1
\H3.5;\W0.965;\Q15;\Q15;\H7.00;0,838
  7
KTEXTSTYLE
 73
     1
 44
1.0
  0
MTEXT
  5
186
330
AB
100
AcDbEntity
  8
0
 62
     7
100
AcDbMText
 10
493.6529374870888
 20
359.4827951166369
 30
0.0
 40
0.0
 41
0.0
 46
0.0
 71
     1
 72
     1
  1
\H3.5;\W0.965;\Q15;\Q15;\H7.00;0,527
  7
KTEXTSTYLE
 73
     1
 44
1.0
  0
MTEXT
  5
187
330
AB
100
AcDbEntity
  8
0
 62
     7
100
AcDbMText
 10
90.3017926964394
 20
347.4827951166369
 30
0.0
 40
0.0
 41
0.0
 46
0.0
 71
     1
 72
     1
  1
\H3.5;\W0.965;\Q15;\Q15;\H7.00;10
  7
KTEXTSTYLE
 73
     1
 44
1.0
  0
MTEXT
  5
188
330
AB
100
AcDbEntity
  8
0
 62
     7
100
AcDbMText
 10
91.04262597891011
 20
335.4827951166369
 30
0.0
 40
0.0
 41
0.0
 46
0.0
 71
     1
 72
     1
  1
\H3.5;\W0.965;\Q15;\Q15;\H7.00;11
  7
KTEXTSTYLE
 73
     1
 44
1.0
  0
MTEXT
  5
189
330
AB
100
AcDbEntity
  8
0
 62
     7
100
AcDbMText
 10
90.3017926964394
 20
322.9827951166369
 30
0.0
 40
0.0
 41
0.0
 46
0.0
 71
     1
 72
     1
  1
\H3.5;\W0.965;\Q15;\Q15;\H7.00;12
  7
KTEXTSTYLE
 73
     1
 44
1.0
  0
MTEXT
  5
18A
330
AB
100
AcDbEntity
  8
0
 62
     7
100
AcDbMText
 10
123.0796037468544
 20
347.4827951166369
 30
0.0
 40
0.0
 41
0.0
 46
0.0
 71
     1
 72
     1
  1
\H3.5;\W0.965;\Q15;\Q15;\H7.00;15
  7
KTEXTSTYLE
 73
     1
 44
1.0
  0
MTEXT
  5
18B
330
AB
100
AcDbEntity
  8
0
 62
     7
100
AcDbMText
 10
123.0796037468544
 20
335.4827951166369
 30
0.0
 40
0.0
 41
0.0
 46
0.0
 71
     1
 72
     1
  1
\H3.5;\W0.965;\Q15;\Q15;\H7.00;15
  7
KTEXTSTYLE
 73
     1
 44
1.0
  0
MTEXT
  5
18C
330
AB
100
AcDbEntity
  8
0
 62
     7
100
AcDbMText
 10
122.0609594139687
 20
322.9827951166369
 30
0.0
 40
0.0
 41
0.0
 46
0.0
 71
     1
 72
     1
  1
\H3.5;\W0.965;\Q15;\Q15;\H7.00;20
  7
KTEXTSTYLE
 73
     1
 44
1.0
  0
MTEXT
  5
18D
330
AB
100
AcDbEntity
  8
0
 62
     7
100
AcDbMText
 10
155.4307504448525
 20
347.4827951166369
 30
0.0
 40
0.0
 41
0.0
 46
0.0
 71
     1
 72
     1
  1
\H3.5;\W0.965;\Q15;\Q15;\H7.00;0,735
  7
KTEXTSTYLE
 73
     1
 44
1.0
  0
MTEXT
  5
18E
330
AB
100
AcDbEntity
  8
0
 62
     7
100
AcDbMText
 10
155.1529393944375
 20
335.4827951166369
 30
0.0
 40
0.0
 41
0.0
 46
0.0
 71
     1
 72
     1
  1
\H3.5;\W0.965;\Q15;\Q15;\H7.00;0,598
  7
KTEXTSTYLE
 73
     1
 44
1.0
  0
MTEXT
  5
18F
330
AB
100
AcDbEntity
  8
0
 62
     7
100
AcDbMText
 10
155.8937707695595
 20
322.9827951166369
 30
0.0
 40
0.0
 41
0.0
 46
0.0
 71
     1
 72
     1
  1
\H3.5;\W0.965;\Q15;\Q15;\H7.00;1,995
  7
KTEXTSTYLE
 73
     1
 44
1.0
  0
MTEXT
  5
190
330
AB
100
AcDbEntity
  8
0
 62
     7
100
AcDbMText
 10
195.8751264366738
 20
347.4827951166369
 30
0.0
 40
0.0
 41
0.0
 46
0.0
 71
     1
 72
     1
  1
\H3.5;\W0.965;\Q15;\Q15;\H7.00;2,744
  7
KTEXTSTYLE
 73
     1
 44
1.0
  0
MTEXT
  5
191
330
AB
100
AcDbEntity
  8
0
 62
     7
100
AcDbMText
 10
196.1529393944375
 20
335.4827951166369
 30
0.0
 40
0.0
 41
0.0
 46
0.0
 71
     1
 72
     1
  1
\H3.5;\W0.965;\Q15;\Q15;\H7.00;2,250
  7
KTEXTSTYLE
 73
     1
 44
1.0
  0
MTEXT
  5
192
330
AB
100
AcDbEntity
  8
0
 62
     7
100
AcDbMText
 10
195.8751264366738
 20
322.9827951166369
 30
0.0
 40
0.0
 41
0.0
 46
0.0
 71
     1
 72
     1
  1
\H3.5;\W0.965;\Q15;\Q15;\H7.00;6,429
  7
KTEXTSTYLE
 73
     1
 44
1.0
  0
MTEXT
  5
193
330
AB
100
AcDbEntity
  8
0
 62
     7
100
AcDbMText
 10
236.8751283440224
 20
347.4827951166369
 30
0.0
 40
0.0
 41
0.0
 46
0.0
 71
     1
 72
     1
  1
\H3.5;\W0.965;\Q15;\Q15;\H7.00;2,744
  7
KTEXTSTYLE
 73
     1
 44
1.0
  0
MTEXT
  5
194
330
AB
100
AcDbEntity
  8
0
 62
     7
100
AcDbMText
 10
237.1529374870888
 20
335.4827951166369
 30
0.0
 40
0.0
 41
0.0
 46
0.0
 71
     1
 72
     1
  1
\H3.5;\W0.965;\Q15;\Q15;\H7.00;2,250
  7
KTEXTSTYLE
 73
     1
 44
1.0
  0
MTEXT
  5
195
330
AB
100
AcDbEntity
  8
0
 62
     7
100
AcDbMText
 10
236.8751283440224
 20
322.9827951166369
 30
0.0
 40
0.0
 41
0.0
 46
0.0
 71
     1
 72
     1
  1
\H3.5;\W0.965;\Q15;\Q15;\H7.00;6,429
  7
KTEXTSTYLE
 73
     1
 44
1.0
  0
MTEXT
  5
196
330
AB
100
AcDbEntity
  8
0
 62
     7
100
AcDbMText
 10
277.6529374870888
 20
347.4827951166369
 30
0.0
 40
0.0
 41
0.0
 46
0.0
 71
     1
 72
     1
  1
\H3.5;\W0.965;\Q15;\Q15;\H7.00;0,243
  7
KTEXTSTYLE
 73
     1
 44
1.0
  0
MTEXT
  5
197
330
AB
100
AcDbEntity
  8
0
 62
     7
100
AcDbMText
 10
277.3751283440224
 20
335.4827951166369
 30
0.0
 40
0.0
 41
0.0
 46
0.0
 71
     1
 72
     1
  1
\H3.5;\W0.965;\Q15;\Q15;\H7.00;0,209
  7
KTEXTSTYLE
 73
     1
 44
1.0
  0
MTEXT
  5
198
330
AB
100
AcDbEntity
  8
0
 62
     7
100
AcDbMText
 10
277.6529374870888
 20
322.9827951166369
 30
0.0
 40
0.0
 41
0.0
 46
0.0
 71
     1
 72
     1
  1
\H3.5;\W0.965;\Q15;\Q15;\H7.00;0,566
  7
KTEXTSTYLE
 73
     1
 44
1.0
  0
MTEXT
  5
199
330
AB
100
AcDbEntity
  8
0
 62
     7
100
AcDbMText
 10
318.3751283440224
 20
347.4827951166369
 30
0.0
 40
0.0
 41
0.0
 46
0.0
 71
     1
 72
     1
  1
\H3.5;\W0.965;\Q15;\Q15;\H7.00;0,826
  7
KTEXTSTYLE
 73
     1
 44
1.0
  0
MTEXT
  5
19A
330
AB
100
AcDbEntity
  8
0
 62
     7
100
AcDbMText
 10
318.3751283440224
 20
335.4827951166369
 30
0.0
 40
0.0
 41
0.0
 46
0.0
 71
     1
 72
     1
  1
\H3.5;\W0.965;\Q15;\Q15;\H7.00;0,769
  7
KTEXTSTYLE
 73
     1
 44
1.0
  0
MTEXT
  5
19B
330
AB
100
AcDbEntity
  8
0
 62
     7
100
AcDbMText
 10
319.1159578117959
 20
322.9827951166369
 30
0.0
 40
0.0
 41
0.0
 46
0.0
 71
     1
 72
     1
  1
\H3.5;\W0.965;\Q15;\Q15;\H7.00;1,087
  7
KTEXTSTYLE
 73
     1
 44
1.0
  0
MTEXT
  5
19C
330
AB
100
AcDbEntity
  8
0
 62
     7
100
AcDbMText
 10
361.6529374870888
 20
347.4827951166369
 30
0.0
 40
0.0
 41
0.0
 46
0.0
 71
     1
 72
     1
  1
\H3.5;\W0.965;\Q15;\Q15;\H7.00;0,527
  7
KTEXTSTYLE
 73
     1
 44
1.0
  0
MTEXT
  5
19D
330
AB
100
AcDbEntity
  8
0
 62
     7
100
AcDbMText
 10
405.8937745842568
 20
347.4827951166369
 30
0.0
 40
0.0
 41
0.0
 46
0.0
 71
     1
 72
     1
  1
\H3.5;\W0.965;\Q15;\Q15;\H7.00;0,341
  7
KTEXTSTYLE
 73
     1
 44
1.0
  0
MTEXT
  5
19E
330
AB
100
AcDbEntity
  8
0
 62
     7
100
AcDbMText
 10
448.6529374870888
 20
347.4827951166369
 30
0.0
 40
0.0
 41
0.0
 46
0.0
 71
     1
 72
     1
  1
\H3.5;\W0.965;\Q15;\Q15;\H7.00;0,838
  7
KTEXTSTYLE
 73
     1
 44
1.0
  0
MTEXT
  5
19F
330
AB
100
AcDbEntity
  8
0
 62
     7
100
AcDbMText
 10
493.6529374870888
 20
347.4827951166369
 30
0.0
 40
0.0
 41
0.0
 46
0.0
 71
     1
 72
     1
  1
\H3.5;\W0.965;\Q15;\Q15;\H7.00;0,527
  7
KTEXTSTYLE
 73
     1
 44
1.0
  0
MTEXT
  5
1A0
330
AB
100
AcDbEntity
  8
0
 62
     7
100
AcDbMText
 10
361.6529374870888
 20
335.4827951166369
 30
0.0
 40
0.0
 41
0.0
 46
0.0
 71
     1
 72
     1
  1
\H3.5;\W0.965;\Q15;\Q15;\H7.00;0,527
  7
KTEXTSTYLE
 73
     1
 44
1.0
  0
MTEXT
  5
1A1
330
AB
100
AcDbEntity
  8
0
 62
     7
100
AcDbMText
 10
405.8937745842568
 20
335.4827951166369
 30
0.0
 40
0.0
 41
0.0
 46
0.0
 71
     1
 72
     1
  1
\H3.5;\W0.965;\Q15;\Q15;\H7.00;0,341
  7
KTEXTSTYLE
 73
     1
 44
1.0
  0
MTEXT
  5
1A2
330
AB
100
AcDbEntity
  8
0
 62
     7
100
AcDbMText
 10
448.6529374870888
 20
335.4827951166369
 30
0.0
 40
0.0
 41
0.0
 46
0.0
 71
     1
 72
     1
  1
\H3.5;\W0.965;\Q15;\Q15;\H7.00;0,838
  7
KTEXTSTYLE
 73
     1
 44
1.0
  0
MTEXT
  5
1A3
330
AB
100
AcDbEntity
  8
0
 62
     7
100
AcDbMText
 10
493.6529374870888
 20
335.4827951166369
 30
0.0
 40
0.0
 41
0.0
 46
0.0
 71
     1
 72
     1
  1
\H3.5;\W0.965;\Q15;\Q15;\H7.00;0,527
  7
KTEXTSTYLE
 73
     1
 44
1.0
  0
MTEXT
  5
1A4
330
AB
100
AcDbEntity
  8
0
 62
     7
100
AcDbMText
 10
361.6529374870888
 20
322.9827951166369
 30
0.0
 40
0.0
 41
0.0
 46
0.0
 71
     1
 72
     1
  1
\H3.5;\W0.965;\Q15;\Q15;\H7.00;0,527
  7
KTEXTSTYLE
 73
     1
 44
1.0
  0
MTEXT
  5
1A5
330
AB
100
AcDbEntity
  8
0
 62
     7
100
AcDbMText
 10
405.1529374870888
 20
322.9827951166369
 30
0.0
 40
0.0
 41
0.0
 46
0.0
 71
     1
 72
     1
  1
\H3.5;\W0.965;\Q15;\Q15;\H7.00;0,566
  7
KTEXTSTYLE
 73
     1
 44
1.0
  0
MTEXT
  5
1A6
330
AB
100
AcDbEntity
  8
0
 62
     7
100
AcDbMText
 10
449.1159578117959
 20
322.9827951166369
 30
0.0
 40
0.0
 41
0.0
 46
0.0
 71
     1
 72
     1
  1
\H3.5;\W0.965;\Q15;\Q15;\H7.00;1,087
  7
KTEXTSTYLE
 73
     1
 44
1.0
  0
MTEXT
  5
1A7
330
AB
100
AcDbEntity
  8
0
 62
     7
100
AcDbMText
 10
493.6529374870888
 20
322.9827951166369
 30
0.0
 40
0.0
 41
0.0
 46
0.0
 71
     1
 72
     1
  1
\H3.5;\W0.965;\Q15;\Q15;\H7.00;0,527
  7
KTEXTSTYLE
 73
     1
 44
1.0
  0
ENDBLK
  5
1A9
330
AB
100
AcDbEntity
  8
0
100
AcDbBlockEnd
  0
BLOCK
  5
1AE
330
1AA
100
AcDbEntity
  8
0
100
AcDbBlockBegin
  2
U1
 70
     0
 10
0.0
 20
0.0
 30
0.0
  3
U1
  1

  0
MTEXT
  5
1AC
330
1AA
100
AcDbEntity
  8
0
 62
     7
100
AcDbMText
 10
85.50435717428854
 20
290.652077548793
 30
0.0
 40
0.0
 41
0.0
 46
0.0
 71
     1
 72
     1
  1
\H3.5;\W0.965;\Q15;\Q15;\H10.00;Опорный режим - 2
  7
KTEXTSTYLE
 73
     1
 44
1.0
  0
MTEXT
  5
1AD
330
1AA
100
AcDbEntity
  8
0
 62
     7
100
AcDbMText
 10
85.50435717428854
 20
269.2446392705948
 30
0.0
 40
0.0
 41
0.0
 46
0.0
 71
     1
 72
     1
  1
\H3.5;\W0.965;\Q15;\Q15;\H10.00;Параметры АП после аппроксимации:
  7
KTEXTSTYLE
 73
     1
 44
1.0
  0
ENDBLK
  5
1AF
330
1AA
100
AcDbEntity
  8
0
100
AcDbBlockEnd
  0
BLOCK
  5
1CD
330
1B1
100
AcDbEntity
  8
0
100
AcDbBlockBegin
  2
U2
 70
     0
 10
0.0
 20
0.0
 30
0.0
  3
U2
  1

  0
IMAGE
  5
1B4
330
1B1
100
AcDbEntity
  8
0
 92
      140
310
8C000000010000008400000006000000050000003D3AB79F89C07440F4BBA682ABB95A4000000000000000008CAF5E902FB68040F4BBA682ABB95A4000000000000000008CAF5E902FB6804006607E482C666B4000000000000000003D3AB79F89C0744006607E482C666B4000000000000000003D3AB79F89C07440F4BBA6
310
82ABB95A400000000000000000
100
AcDbRasterImage
 90
        0
 10
332.0335995824169
 20
106.9010931614174
 30
0.0
 11
0.3413124999999999
 21
0.0
 31
0.0
 12
2.089936303169905E-17
 22
0.3413125
 32
0.0
 13
594.0
 23
329.0
340
1B3
 70
    15
280
     0
281
    50
282
    50
283
     0
360
1B5
 71
     1
 91
        2
 14
-0.5
 24
-0.5
 14
593.5
 24
328.5
  0
INSERT
  5
1B7
330
1B1
100
AcDbEntity
  8
0
100
AcDbBlockReference
  2
U3
 10
0.0
 20
0.0
 30
0.0
  0
ENDBLK
  5
1CE
330
1B1
100
AcDbEntity
  8
0
100
AcDbBlockEnd
  0
BLOCK
  5
1CB
330
1B6
100
AcDbEntity
  8
0
100
AcDbBlockBegin
  2
U3
 70
     0
 10
0.0
 20
0.0
 30
0.0
  3
U3
  1

  0
LINE
  5
1B8
330
1B6
100
AcDbEntity
  8
0
  6
K5LT_THIN
 62
     7
370
    18
100
AcDbLine
 10
358.0335995824169
 20
126.4474885979365
 30
0.0
 11
348.2381507641311
 21
126.4474885979365
 31
0.0
  0
INSERT
  5
1BA
330
1B6
100
AcDbEntity
  8
0
100
AcDbBlockReference
  2
U4
 10
0.0
 20
0.0
 30
0.0
  0
INSERT
  5
1C4
330
1B6
100
AcDbEntity
  8
0
100
AcDbBlockReference
  2
U5
 10
0.0
 20
0.0
 30
0.0
  0
MTEXT
  5
1CA
330
1B6
100
AcDbEntity
  8
0
 62
     7
100
AcDbMText
 10
326.2609239593472
 20
131.1219414530074
 30
0.0
 40
0.0
 41
0.0
 46
0.0
 71
     1
 72
     1
  1
\H3.5;\W0.965;\Q15;\Q15;\H7.00;0,527
  7
KTEXTSTYLE
 73
     1
 44
1.0
  0
ENDBLK
  5
1CC
330
1B6
100
AcDbEntity
  8
0
100
AcDbBlockEnd
  0
BLOCK
  5
1C1
330
1B9
100
AcDbEntity
  8
0
100
AcDbBlockBegin
  2
U4
 70
     0
 10
0.0
 20
0.0
 30
0.0
  3
U4
  1

  0
MTEXT
  5
1BB
330
1B9
100
AcDbEntity
  8
0
 62
     7
100
AcDbMText
 10
334.8943086745805
 20
215.577718821076
 30
0.0
 40
0.0
 41
0.0
 46
0.0
 71
     1
 72
     1
  1
\H3.5;\W0.965;\Q15;\Q15;\H7.00;υ
  7
KTEXTSTYLE
 73
     1
 44
1.0
  0
MTEXT
  5
1BC
330
1B9
100
AcDbEntity
  8
0
 62
     7
100
AcDbMText
 10
339.7097250106401
 20
215.577718821076
 30
0.0
 40
0.0
 41
0.0
 46
0.0
 71
     1
 72
     1
  1
\H3.5;\W0.965;\Q15;\Q15;\H7.00;,
  7
KTEXTSTYLE
 73
     1
 44
1.0
  0
MTEXT
  5
1BD
330
1B9
100
AcDbEntity
  8
0
 62
     7
100
AcDbMText
 10
343.7082077148027
 20
218.8766632943426
 30
0.0
 40
0.0
 41
0.0
 46
0.0
 71
     1
 72
     1
  1
\H3.5;\W0.965;\Q15;\Q15;\H4.67;рад
  7
KTEXTSTYLE
 73
     1
 44
1.0
  0
MTEXT
  5
1BE
330
1B9
100
AcDbEntity
  8
0
 62
     7
100
AcDbMText
 10
341.3916951301164
 20
210.8165710835729
 30
0.0
 40
0.0
 41
0.0
 46
0.0
 71
     1
 72
     1
  1
\H3.5;\W0.965;\Q15;\Q15;\H4.67;  
  7
KTEXTSTYLE
 73
     1
 44
1.0
  0
MTEXT
  5
1BF
330
1B9
100
AcDbEntity
  8
0
 62
     7
100
AcDbMText
 10
345.342805493123
 20
210.8165710835729
 30
0.0
 40
0.0
 41
0.0
 46
0.0
 71
     1
 72
     1
  1
\H3.5;\W0.965;\Q15;\Q15;\H4.67;c
  7
KTEXTSTYLE
 73
     1
 44
1.0
  0
LINE
  5
1C0
330
1B9
100
AcDbEntity
  8
0
  6
K5LT_THIN
 62
     7
370
    18
100
AcDbLine
 10
342.9320579650468
 20
212.077718821076
 30
0.0
 11
350.7108074309892
 21
212.077718821076
 31
0.0
  0
ENDBLK
  5
1C2
330
1B9
100
AcDbEntity
  8
0
100
AcDbBlockEnd
  0
BLOCK
  5
1C8
330
1C3
100
AcDbEntity
  8
0
100
AcDbBlockBegin
  2
U5
 70
     0
 10
0.0
 20
0.0
 30
0.0
  3
U5
  1

  0
MTEXT
  5
1C5
330
1C3
100
AcDbEntity
  8
0
 62
     7
100
AcDbMText
 10
521.5522996488646
 20
120.0837089594851
 30
0.0
 40
0.0
 41
0.0
 46
0.0
 71
     1
 72
     1
  1
\H3.5;\W0.965;\Q15;\Q15;\H7.00;H, 
  7
KTEXTSTYLE
 73
     1
 44
1.0
  0
MTEXT
  5
1C6
330
1C3
100
AcDbEntity
  8
0
 62
     7
100
AcDbMText
 10
530.442299038513
 20
120.0837089594851
 30
0.0
 40
0.0
 41
0.0
 46
0.0
 71
     1
 72
     1
  1
\H3.5;\W0.965;\Q15;\Q15;\H7.00;мх10
  7
KTEXTSTYLE
 73
     1
 44
1.0
  0
MTEXT
  5
1C7
330
1C3
100
AcDbEntity
  8
0
 62
     7
100
AcDbMText
 10
548.7018224302367
 20
123.3826534327517
 30
0.0
 40
0.0
 41
0.0
 46
0.0
 71
     1
 72
     1
  1
\H3.5;\W0.965;\Q15;\Q15;\H4.67;3
  7
KTEXTSTYLE
 73
     1
 44
1.0
  0
ENDBLK
  5
1C9
330
1C3
100
AcDbEntity
  8
0
100
AcDbBlockEnd
  0
BLOCK
  5
1E1
330
1CF
100
AcDbEntity
  8
0
100
AcDbBlockBegin
  2
U6
 70
     0
 10
0.0
 20
0.0
 30
0.0
  3
U6
  1

  0
LINE
  5
1D1
330
1CF
100
AcDbEntity
  8
0
  6
K5LT_THIN
 62
     7
370
    18
100
AcDbLine
 10
112.7530826054017
 20
139.5697114224006
 30
0.0
 11
99.02201960889465
 21
139.6166744196869
 31
0.0
  0
INSERT
  5
1D3
330
1CF
100
AcDbEntity
  8
0
100
AcDbBlockReference
  2
U7
 10
0.0
 20
0.0
 30
0.0
  0
INSERT
  5
1D9
330
1CF
100
AcDbEntity
  8
0
100
AcDbBlockReference
  2
U8
 10
0.0
 20
0.0
 30
0.0
  0
MTEXT
  5
1DF
330
1CF
100
AcDbEntity
  8
0
 62
     7
100
AcDbMText
 10
76.87584815693617
 20
142.4503936374256
 30
0.0
 40
0.0
 41
0.0
 46
0.0
 71
     1
 72
     1
  1
\H3.5;\W0.965;\Q15;\Q15;\H7.00;0,341
  7
KTEXTSTYLE
 73
     1
 44
1.0
  0
MTEXT
  5
1E0
330
1CF
100
AcDbEntity
  8
0
 62
     7
100
AcDbMText
 10
265.4016496927559
 20
159.477203454345
 30
0.0
 40
0.0
 41
0.0
 46
0.0
 71
     1
 72
     1
  1
\H3.5;\W0.965;\Q15;\Q15;\H7.00;0,566
  7
KTEXTSTYLE
 73
     1
 44
1.0
  0
ENDBLK
  5
1E2
330
1CF
100
AcDbEntity
  8
0
100
AcDbBlockEnd
  0
BLOCK
  5
1D6
330
1D2
100
AcDbEntity
  8
0
100
AcDbBlockBegin
  2
U7
 70
     0
 10
0.0
 20
0.0
 30
0.0
  3
U7
  1

  0
MTEXT
  5
1D4
330
1D2
100
AcDbEntity
  8
0
 62
     7
100
AcDbMText
 10
85.56628464463813
 20
242.496009388323
 30
0.0
 40
0.0
 41
0.0
 46
0.0
 71
     1
 72
     1
  1
\H3.5;\W0.965;\Q15;\Q15;\H7.00;μ
  7
KTEXTSTYLE
 73
     1
 44
1.0
  0
MTEXT
  5
1D5
330
1D2
100
AcDbEntity
  8
0
 62
     7
100
AcDbMText
 10
90.93732641938789
 20
242.496009388323
 30
0.0
 40
0.0
 41
0.0
 46
0.0
 71
     1
 72
     1
  1
\H3.5;\W0.965;\Q15;\Q15;\H7.00;, c
  7
KTEXTSTYLE
 73
     1
 44
1.0
  0
ENDBLK
  5
1D7
330
1D2
100
AcDbEntity
  8
0
100
AcDbBlockEnd
  0
BLOCK
  5
1DD
330
1D8
100
AcDbEntity
  8
0
100
AcDbBlockBegin
  2
U8
 70
     0
 10
0.0
 20
0.0
 30
0.0
  3
U8
  1

  0
MTEXT
  5
1DA
330
1D8
100
AcDbEntity
  8
0
 62
     7
100
AcDbMText
 10
269.9002048400671
 20
122.8338793831213
 30
0.0
 40
0.0
 41
0.0
 46
0.0
 71
     1
 72
     1
  1
\H3.5;\W0.965;\Q15;\Q15;\H7.00;H, 
  7
KTEXTSTYLE
 73
     1
 44
1.0
  0
MTEXT
  5
1DB
330
1D8
100
AcDbEntity
  8
0
 62
     7
100
AcDbMText
 10
278.7902042297155
 20
122.8338793831213
 30
0.0
 40
0.0
 41
0.0
 46
0.0
 71
     1
 72
     1
  1
\H3.5;\W0.965;\Q15;\Q15;\H7.00;мх10
  7
KTEXTSTYLE
 73
     1
 44
1.0
  0
MTEXT
  5
1DC
330
1D8
100
AcDbEntity
  8
0
 62
     7
100
AcDbMText
 10
297.0497276214392
 20
126.1328238563879
 30
0.0
 40
0.0
 41
0.0
 46
0.0
 71
     1
 72
     1
  1
\H3.5;\W0.965;\Q15;\Q15;\H4.67;3
  7
KTEXTSTYLE
 73
     1
 44
1.0
  0
ENDBLK
  5
1DE
330
1D8
100
AcDbEntity
  8
0
100
AcDbBlockEnd
  0
BLOCK
  5
1F3
330
1E3
100
AcDbEntity
  8
0
100
AcDbBlockBegin
  2
U9
 70
     0
 10
0.0
 20
0.0
 30
0.0
  3
U9
  1

  0
IMAGE
  5
1E6
330
1E3
100
AcDbEntity
  8
0
 92
      140
310
8C00000001000000840000000600000005000000CA6944D51D2582406B2D6441FE425A40000000000000000085250091C9E587406B2D6441FE425A40000000000000000085250091C9E58740D39B9D7237316C400000000000000000CA6944D51D258240D39B9D7237316C400000000000000000CA6944D51D2582406B2D64
310
41FE425A400000000000000000
100
AcDbRasterImage
 90
        0
 10
580.6395669312271
 20
105.0467685201926
 30
0.0
 11
0.3042708333333333
 21
0.0
 31
0.0
 12
1.863121510577822E-17
 22
0.3042708333333333
 32
0.0
 13
605.0
 23
396.0
340
1E5
 70
    15
280
     0
281
    50
282
    50
283
     0
360
1E7
 71
     1
 91
        2
 14
-0.5
 24
-0.5
 14
604.5
 24
395.5
  0
LINE
  5
1E8
330
1E3
100
AcDbEntity
  8
0
  6
K5LT_THIN
 62
     7
370
    18
100
AcDbLine
 10
605.6395669312271
 20
129.9685909958327
 30
0.0
 11
595.0424069280147
 21
129.9010931614174
 31
0.0
  0
MTEXT
  5
1E9
330
1E3
100
AcDbEntity
  8
0
 62
     7
100
AcDbMText
 10
583.1070673801335
 20
224.326144511879
 30
0.0
 40
0.0
 41
0.0
 46
0.0
 71
     1
 72
     1
  1
\H3.5;\W0.965;\Q15;\Q15;\H7.00;i
  7
KTEXTSTYLE
 73
     1
 44
1.0
  0
INSERT
  5
1EB
330
1E3
100
AcDbEntity
  8
0
100
AcDbBlockReference
  2
U10
 10
0.0
 20
0.0
 30
0.0
  0
MTEXT
  5
1F1
330
1E3
100
AcDbEntity
  8
0
 62
     7
100
AcDbMText
 10
575.1690770567983
 20
133.6046074534098
 30
0.0
 40
0.0
 41
0.0
 46
0.0
 71
     1
 72
     1
  1
\H3.5;\W0.965;\Q15;\Q15;\H7.00;0,838
  7
KTEXTSTYLE
 73
     1
 44
1.0
  0
MTEXT
  5
1F2
330
1E3
100
AcDbEntity
  8
0
 62
     7
100
AcDbMText
 10
756.1623277254687
 20
140.2941777401787
 30
0.0
 40
0.0
 41
0.0
 46
0.0
 71
     1
 72
     1
  1
\H3.5;\W0.965;\Q15;\Q15;\H7.00;1,087
  7
KTEXTSTYLE
 73
     1
 44
1.0
  0
ENDBLK
  5
1F4
330
1E3
100
AcDbEntity
  8
0
100
AcDbBlockEnd
  0
BLOCK
  5
1EF
330
1EA
100
AcDbEntity
  8
0
100
AcDbBlockBegin
  2
U10
 70
     0
 10
0.0
 20
0.0
 30
0.0
  3
U10
  1

  0
MTEXT
  5
1EC
330
1EA
100
AcDbEntity
  8
0
 62
     7
100
AcDbMText
 10
757.5653945117258
 20
121.0467685201926
 30
0.0
 40
0.0
 41
0.0
 46
0.0
 71
     1
 72
     1
  1
\H3.5;\W0.965;\Q15;\Q15;\H7.00;H, 
  7
KTEXTSTYLE
 73
     1
 44
1.0
  0
MTEXT
  5
1ED
330
1EA
100
AcDbEntity
  8
0
 62
     7
100
AcDbMText
 10
766.4553939013742
 20
121.0467685201926
 30
0.0
 40
0.0
 41
0.0
 46
0.0
 71
     1
 72
     1
  1
\H3.5;\W0.965;\Q15;\Q15;\H7.00;мх10
  7
KTEXTSTYLE
 73
     1
 44
1.0
  0
MTEXT
  5
1EE
330
1EA
100
AcDbEntity
  8
0
 62
     7
100
AcDbMText
 10
784.7149172930979
 20
124.3457129934592
 30
0.0
 40
0.0
 41
0.0
 46
0.0
 71
     1
 72
     1
  1
\H3.5;\W0.965;\Q15;\Q15;\H4.67;3
  7
KTEXTSTYLE
 73
     1
 44
1.0
  0
ENDBLK
  5
1F0
330
1EA
100
AcDbEntity
  8
0
100
AcDbBlockEnd
  0
BLOCK
  5
24E
330
1F5
100
AcDbEntity
  8
0
100
AcDbBlockBegin
  2
U11
 70
     0
 10
0.0
 20
0.0
 30
0.0
  3
U11
  1

  0
LINE
  5
1F7
330
1F5
100
AcDbEntity
  8
0
  6
K5LT_BASIC
 62
     5
420
      255
370
    60
100
AcDbLine
 10
651.0
 20
60.0
 30
0.0
 11
836.0
 21
60.0
 31
0.0
  0
LINE
  5
1F8
330
1F5
100
AcDbEntity
  8
0
  6
K5LT_THIN
 62
     7
370
    18
100
AcDbLine
 10
651.0
 20
50.0
 30
0.0
 11
716.0
 21
50.0
 31
0.0
  0
LINE
  5
1F9
330
1F5
100
AcDbEntity
  8
0
  6
K5LT_THIN
 62
     7
370
    18
100
AcDbLine
 10
651.0
 20
45.0
 30
0.0
 11
716.0
 21
45.0
 31
0.0
  0
LINE
  5
1FA
330
1F5
100
AcDbEntity
  8
0
  6
K5LT_THIN
 62
     7
370
    18
100
AcDbLine
 10
651.0
 20
30.0
 30
0.0
 11
716.0
 21
30.0
 31
0.0
  0
LINE
  5
1FB
330
1F5
100
AcDbEntity
  8
0
  6
K5LT_THIN
 62
     7
370
    18
100
AcDbLine
 10
651.0
 20
25.0
 30
0.0
 11
716.0
 21
25.0
 31
0.0
  0
LINE
  5
1FC
330
1F5
100
AcDbEntity
  8
0
  6
K5LT_THIN
 62
     7
370
    18
100
AcDbLine
 10
651.0
 20
20.0
 30
0.0
 11
716.0
 21
20.0
 31
0.0
  0
LINE
  5
1FD
330
1F5
100
AcDbEntity
  8
0
  6
K5LT_THIN
 62
     7
370
    18
100
AcDbLine
 10
651.0
 20
15.0
 30
0.0
 11
716.0
 21
15.0
 31
0.0
  0
LINE
  5
1FE
330
1F5
100
AcDbEntity
  8
0
  6
K5LT_THIN
 62
     7
370
    18
100
AcDbLine
 10
651.0
 20
10.0
 30
0.0
 11
716.0
 21
10.0
 31
0.0
  0
LINE
  5
1FF
330
1F5
100
AcDbEntity
  8
0
  6
K5LT_BASIC
 62
     5
420
      255
370
    60
100
AcDbLine
 10
651.0
 20
5.0
 30
0.0
 11
651.0
 21
60.0
 31
0.0
  0
LINE
  5
200
330
1F5
100
AcDbEntity
  8
0
  6
K5LT_THIN
 62
     7
370
    18
100
AcDbLine
 10
651.0
 20
55.0
 30
0.0
 11
716.0
 21
55.0
 31
0.0
  0
LINE
  5
201
330
1F5
100
AcDbEntity
  8
0
  6
K5LT_BASIC
 62
     5
420
      255
370
    60
100
AcDbLine
 10
668.0
 20
5.0
 30
0.0
 11
668.0
 21
60.0
 31
0.0
  0
LINE
  5
202
330
1F5
100
AcDbEntity
  8
0
  6
K5LT_BASIC
 62
     5
420
      255
370
    60
100
AcDbLine
 10
691.0
 20
5.0
 30
0.0
 11
691.0
 21
60.0
 31
0.0
  0
LINE
  5
203
330
1F5
100
AcDbEntity
  8
0
  6
K5LT_BASIC
 62
     5
420
      255
370
    60
100
AcDbLine
 10
706.0
 20
5.0
 30
0.0
 11
706.0
 21
60.0
 31
0.0
  0
LINE
  5
204
330
1F5
100
AcDbEntity
  8
0
  6
K5LT_BASIC
 62
     5
420
      255
370
    60
100
AcDbLine
 10
716.0
 20
5.0
 30
0.0
 11
716.0
 21
60.0
 31
0.0
  0
LINE
  5
205
330
1F5
100
AcDbEntity
  8
0
  6
K5LT_BASIC
 62
     5
420
      255
370
    60
100
AcDbLine
 10
786.0
 20
5.0
 30
0.0
 11
786.0
 21
45.0
 31
0.0
  0
LINE
  5
206
330
1F5
100
AcDbEntity
  8
0
  6
K5LT_BASIC
 62
     5
420
      255
370
    60
100
AcDbLine
 10
801.0
 20
25.0
 30
0.0
 11
801.0
 21
45.0
 31
0.0
  0
LINE
  5
207
330
1F5
100
AcDbEntity
  8
0
  6
K5LT_BASIC
 62
     5
420
      255
370
    60
100
AcDbLine
 10
818.0
 20
25.0
 30
0.0
 11
818.0
 21
45.0
 31
0.0
  0
LINE
  5
208
330
1F5
100
AcDbEntity
  8
0
  6
K5LT_BASIC
 62
     5
420
      255
370
    60
100
AcDbLine
 10
651.0
 20
40.0
 30
0.0
 11
716.0
 21
40.0
 31
0.0
  0
LINE
  5
209
330
1F5
100
AcDbEntity
  8
0
  6
K5LT_BASIC
 62
     5
420
      255
370
    60
100
AcDbLine
 10
651.0
 20
35.0
 30
0.0
 11
716.0
 21
35.0
 31
0.0
  0
LINE
  5
20A
330
1F5
100
AcDbEntity
  8
0
  6
K5LT_BASIC
 62
     5
420
      255
370
    60
100
AcDbLine
 10
786.0
 20
20.0
 30
0.0
 11
836.0
 21
20.0
 31
0.0
  0
LINE
  5
20B
330
1F5
100
AcDbEntity
  8
0
  6
K5LT_BASIC
 62
     5
420
      255
370
    60
100
AcDbLine
 10
801.0
 20
40.0
 30
0.0
 11
836.0
 21
40.0
 31
0.0
  0
LINE
  5
20C
330
1F5
100
AcDbEntity
  8
0
  6
K5LT_BASIC
 62
     5
420
      255
370
    60
100
AcDbLine
 10
786.0
 20
40.0
 30
0.0
 11
801.0
 21
40.0
 31
0.0
  0
LINE
  5
20D
330
1F5
100
AcDbEntity
  8
0
  6
K5LT_BASIC
 62
     5
420
      255
370
    60
100
AcDbLine
 10
716.0
 20
45.0
 30
0.0
 11
836.0
 21
45.0
 31
0.0
  0
LINE
  5
20E
330
1F5
100
AcDbEntity
  8
0
  6
K5LT_BASIC
 62
     5
420
      255
370
    60
100
AcDbLine
 10
716.0
 20
20.0
 30
0.0
 11
786.0
 21
20.0
 31
0.0
  0
LINE
  5
20F
330
1F5
100
AcDbEntity
  8
0
  6
K5LT_BASIC
 62
     5
420
      255
370
    60
100
AcDbLine
 10
786.0
 20
25.0
 30
0.0
 11
836.0
 21
25.0
 31
0.0
  0
LINE
  5
210
330
1F5
100
AcDbEntity
  8
0
  6
K5LT_BASIC
 62
     5
420
      255
370
    60
100
AcDbLine
 10
806.5749969482422
 20
20.0
 30
0.0
 11
806.5749969482422
 21
25.0
 31
0.0
  0
LINE
  5
211
330
1F5
100
AcDbEntity
  8
0
  6
K5LT_THIN
 62
     7
370
    18
100
AcDbLine
 10
790.9645843505859
 20
25.0
 30
0.0
 11
790.9645843505859
 21
40.0
 31
0.0
  0
LINE
  5
212
330
1F5
100
AcDbEntity
  8
0
  6
K5LT_THIN
 62
     7
370
    18
100
AcDbLine
 10
795.9822998046875
 20
25.0
 30
0.0
 11
795.9822998046875
 21
40.0
 31
0.0
  0
LINE
  5
213
330
1F5
100
AcDbEntity
  8
0
  6
K5LT_BASIC
 62
     5
420
      255
370
    60
100
AcDbLine
 10
658.0
 20
35.0
 30
0.0
 11
658.0
 21
60.0
 31
0.0
  0
MTEXT
  5
214
330
1F5
100
AcDbEntity
  8
0
 62
     7
100
AcDbMText
 10
804.0354166030884
 20
44.24770736694336
 30
0.0
 40
0.0
 41
0.0
 46
0.0
 71
     1
 72
     1
  1
\H3.5;\W0.965;\Q15;\Q15;Масса
  7
KTEXTSTYLE
 73
     1
 44
1.0
  0
MTEXT
  5
215
330
1F5
100
AcDbEntity
  8
0
 62
     7
100
AcDbMText
 10
818.8895835876465
 20
44.24770736694336
 30
0.0
 40
0.0
 41
0.0
 46
0.0
 71
     1
 72
     1
  1
\H3.5;\W0.965;\Q15;\Q15;Масштаб
  7
KTEXTSTYLE
 73
     1
 44
1.0
  0
MTEXT
  5
216
330
1F5
100
AcDbEntity
  8
0
 62
     7
100
AcDbMText
 10
651.6154086589813
 20
39.2266731262207
 30
0.0
 40
0.0
 41
0.0
 46
0.0
 71
     1
 72
     1
  1
\H3.5;\W0.965;\Q15;\Q15;\W0.784;Изм.
  7
KTEXTSTYLE
 73
     1
 44
1.0
  0
MTEXT
  5
217
330
1F5
100
AcDbEntity
  8
0
 62
     7
100
AcDbMText
 10
658.5622797012329
 20
39.2266731262207
 30
0.0
 40
0.0
 41
0.0
 46
0.0
 71
     1
 72
     1
  1
\H3.5;\W0.965;\Q15;\Q15;\W0.846;Лист
  7
KTEXTSTYLE
 73
     1
 44
1.0
  0
MTEXT
  5
218
330
1F5
100
AcDbEntity
  8
0
 62
     7
100
AcDbMText
 10
671.8270835876465
 20
39.24770736694336
 30
0.0
 40
0.0
 41
0.0
 46
0.0
 71
     1
 72
     1
  1
\H3.5;\W0.965;\Q15;\Q15;№ докум.
  7
KTEXTSTYLE
 73
     1
 44
1.0
  0
MTEXT
  5
219
330
1F5
100
AcDbEntity
  8
0
 62
     7
100
AcDbMText
 10
694.2666664123535
 20
39.24770736694336
 30
0.0
 40
0.0
 41
0.0
 46
0.0
 71
     1
 72
     1
  1
\H3.5;\W0.965;\Q15;\Q15;Подп.
  7
KTEXTSTYLE
 73
     1
 44
1.0
  0
MTEXT
  5
21A
330
1F5
100
AcDbEntity
  8
0
 62
     7
100
AcDbMText
 10
706.5622797012329
 20
39.2266731262207
 30
0.0
 40
0.0
 41
0.0
 46
0.0
 71
     1
 72
     1
  1
\H3.5;\W0.965;\Q15;\Q15;\W0.846;Дата
  7
KTEXTSTYLE
 73
     1
 44
1.0
  0
MTEXT
  5
21B
330
1F5
100
AcDbEntity
  8
0
 62
     7
100
AcDbMText
 10
789.6635417938232
 20
44.24770736694336
 30
0.0
 40
0.0
 41
0.0
 46
0.0
 71
     1
 72
     1
  1
\H3.5;\W0.965;\Q15;\Q15;Лит.
  7
KTEXTSTYLE
 73
     1
 44
1.0
  0
MTEXT
  5
21C
330
1F5
100
AcDbEntity
  8
0
 62
     7
100
AcDbMText
 10
651.5
 20
34.24770736694336
 30
0.0
 40
0.0
 41
0.0
 46
0.0
 71
     1
 72
     1
  1
\H3.5;\W0.965;\Q15;\Q15;Разраб.
  7
KTEXTSTYLE
 73
     1
 44
1.0
  0
MTEXT
  5
21D
330
1F5
100
AcDbEntity
  8
0
 62
     7
100
AcDbMText
 10
651.5
 20
29.24770736694336
 30
0.0
 40
0.0
 41
0.0
 46
0.0
 71
     1
 72
     1
  1
\H3.5;\W0.965;\Q15;\Q15;Пров.
  7
KTEXTSTYLE
 73
     1
 44
1.0
  0
MTEXT
  5
21E
330
1F5
100
AcDbEntity
  8
0
 62
     7
100
AcDbMText
 10
651.5
 20
24.24770736694336
 30
0.0
 40
0.0
 41
0.0
 46
0.0
 71
     1
 72
     1
  1
\H3.5;\W0.965;\Q15;\Q15;Т.контр.
  7
KTEXTSTYLE
 73
     1
 44
1.0
  0
MTEXT
  5
21F
330
1F5
100
AcDbEntity
  8
0
 62
     7
100
AcDbMText
 10
787.7802104949951
 20
24.24770736694336
 30
0.0
 40
0.0
 41
0.0
 46
0.0
 71
     1
 72
     1
  1
\H3.5;\W0.965;\Q15;\Q15;Лист
  7
KTEXTSTYLE
 73
     1
 44
1.0
  0
MTEXT
  5
220
330
1F5
100
AcDbEntity
  8
0
 62
     7
100
AcDbMText
 10
808.9156227111816
 20
24.24770736694336
 30
0.0
 40
0.0
 41
0.0
 46
0.0
 71
     1
 72
     1
  1
\H3.5;\W0.965;\Q15;\Q15;Листов
  7
KTEXTSTYLE
 73
     1
 44
1.0
  0
MTEXT
  5
221
330
1F5
100
AcDbEntity
  8
0
 62
     7
100
AcDbMText
 10
651.5
 20
14.24770736694336
 30
0.0
 40
0.0
 41
0.0
 46
0.0
 71
     1
 72
     1
  1
\H3.5;\W0.965;\Q15;\Q15;Н.контр.
  7
KTEXTSTYLE
 73
     1
 44
1.0
  0
MTEXT
  5
222
330
1F5
100
AcDbEntity
  8
0
 62
     7
100
AcDbMText
 10
651.5
 20
9.24770736694336
 30
0.0
 40
0.0
 41
0.0
 46
0.0
 71
     1
 72
     1
  1
\H3.5;\W0.965;\Q15;\Q15;Утв.
  7
KTEXTSTYLE
 73
     1
 44
1.0
  0
MTEXT
  5
223
330
1F5
100
AcDbEntity
  8
0
 62
     7
100
AcDbMText
 10
823.444167137146
 20
34.96667671203613
 30
0.0
 40
0.0
 41
0.0
 46
0.0
 71
     1
 72
     1
  1
\H3.5;\W0.965;\Q15;\Q15;\H5.00;1:1
  7
KTEXTSTYLE
 73
     1
 44
1.0
  0
MTEXT
  5
224
330
1F5
100
AcDbEntity
  8
0
 62
     7
100
AcDbMText
 10
828.905499458313
 20
24.2266731262207
 30
0.0
 40
0.0
 41
0.0
 46
0.0
 71
     1
 72
     1
  1
\H3.5;\W0.965;\Q15;\Q15;1
  7
KTEXTSTYLE
 73
     1
 44
1.0
  0
MTEXT
  5
225
330
1F5
100
AcDbEntity
  8
0
 62
     7
100
AcDbMText
 10
719.8307037353516
 20
55.95334815979004
 30
0.0
 40
0.0
 41
0.0
 46
0.0
 71
     1
 72
     1
  1
\H3.5;\W0.965;\Q15;\Q15;\W0.514;\H7.00;Автопилот стабилизации движения маневренного самолета
  7
KTEXTSTYLE
 73
     1
 44
1.0
  0
MTEXT
  5
226
330
1F5
100
AcDbEntity
  8
0
 62
     7
100
AcDbMText
 10
668.5
 20
34.2266731262207
 30
0.0
 40
0.0
 41
0.0
 46
0.0
 71
     1
 72
     1
  1
\H3.5;\W0.965;\Q15;\Q15;Пашинин С.А.
  7
KTEXTSTYLE
 73
     1
 44
1.0
  0
MTEXT
  5
227
330
1F5
100
AcDbEntity
  8
0
 62
     7
100
AcDbMText
 10
668.5
 20
29.2266731262207
 30
0.0
 40
0.0
 41
0.0
 46
0.0
 71
     1
 72
     1
  1
\H3.5;\W0.965;\Q15;\Q15;Окоемов Б.Н.
  7
KTEXTSTYLE
 73
     1
 44
1.0
  0
MTEXT
  5
228
330
1F5
100
AcDbEntity
  8
0
 62
     7
100
AcDbMText
 10
790.4994087219238
 20
18.7291374206543
 30
0.0
 40
0.0
 41
0.0
 46
0.0
 71
     1
 72
     1
  1
\H3.5;\W0.965;\Q15;\Q15;МГТУ им. Н. Э. Баумана
  7
KTEXTSTYLE
 73
     1
 44
1.0
  0
MTEXT
  5
229
330
1F5
100
AcDbEntity
  8
0
 62
     7
100
AcDbMText
 10
798.9726877212524
 20
14.22667217254639
 30
0.0
 40
0.0
 41
0.0
 46
0.0
 71
     1
 72
     1
  1
\H3.5;\W0.965;\Q15;\Q15;Кафедра ИУ2
  7
KTEXTSTYLE
 73
     1
 44
1.0
  0
MTEXT
  5
22A
330
1F5
100
AcDbEntity
  8
0
 62
     7
100
AcDbMText
 10
796.8890943527222
 20
9.724206924438477
 30
0.0
 40
0.0
 41
0.0
 46
0.0
 71
     1
 72
     1
  1
\H3.5;\W0.965;\Q15;\Q15;Группа ИУ2-112
  7
KTEXTSTYLE
 73
     1
 44
1.0
  0
MTEXT
  5
22B
330
1F5
100
AcDbEntity
  8
0
 62
     7
100
AcDbMText
 10
728.6747913360596
 20
37.43335342407227
 30
0.0
 40
0.0
 41
0.0
 46
0.0
 71
     1
 72
     1
  1
\H3.5;\W0.965;\Q15;\Q15;\H10.00;Графики
  7
KTEXTSTYLE
 73
     1
 44
1.0
  0
LINE
  5
22C
330
1F5
100
AcDbEntity
  8
0
  6
K5LT_BASIC
 62
     5
420
      255
370
    60
100
AcDbLine
 10
8.0
 20
5.000000000000001
 30
0.0
 11
8.000000000000009
 21
150.0
 31
0.0
  0
LINE
  5
22D
330
1F5
100
AcDbEntity
  8
0
  6
K5LT_BASIC
 62
     5
420
      255
370
    60
100
AcDbLine
 10
13.0
 20
5.000000000000001
 30
0.0
 11
13.00000000000001
 21
150.0
 31
0.0
  0
LINE
  5
22E
330
1F5
100
AcDbEntity
  8
0
  6
K5LT_BASIC
 62
     5
420
      255
370
    60
100
AcDbLine
 10
20.0
 20
5.0
 30
0.0
 11
8.0
 21
5.000000000000001
 31
0.0
  0
LINE
  5
22F
330
1F5
100
AcDbEntity
  8
0
  6
K5LT_BASIC
 62
     5
420
      255
370
    60
100
AcDbLine
 10
20.00000000000001
 20
150.0
 30
0.0
 11
8.000000000000009
 21
150.0
 31
0.0
  0
LINE
  5
230
330
1F5
100
AcDbEntity
  8
0
  6
K5LT_BASIC
 62
     5
420
      255
370
    60
100
AcDbLine
 10
20.0
 20
30.0
 30
0.0
 11
8.000000000000002
 21
30.0
 31
0.0
  0
LINE
  5
231
330
1F5
100
AcDbEntity
  8
0
  6
K5LT_BASIC
 62
     5
420
      255
370
    60
100
AcDbLine
 10
20.0
 20
65.0
 30
0.0
 11
8.000000000000004
 21
65.0
 31
0.0
  0
LINE
  5
232
330
1F5
100
AcDbEntity
  8
0
  6
K5LT_BASIC
 62
     5
420
      255
370
    60
100
AcDbLine
 10
20.00000000000001
 20
90.0
 30
0.0
 11
8.000000000000005
 21
90.0
 31
0.0
  0
LINE
  5
233
330
1F5
100
AcDbEntity
  8
0
  6
K5LT_BASIC
 62
     5
420
      255
370
    60
100
AcDbLine
 10
20.00000000000001
 20
115.0
 30
0.0
 11
8.000000000000007
 21
115.0
 31
0.0
  0
MTEXT
  5
234
330
1F5
100
AcDbEntity
  8
0
 62
     7
100
AcDbMText
 10
8.752291679382324
 20
6.784375190734864
 30
0.0
 40
0.0
 41
0.0
 46
0.0
 71
     1
 72
     1
  1
\H3.5;\W0.965;\Q15;\Q15;Инв. № подл.
  7
KTEXTSTYLE
 11
6.123233995736766E-17
 21
1.0
 31
0.0
 73
     1
 44
1.0
  0
MTEXT
  5
235
330
1F5
100
AcDbEntity
  8
0
 62
     7
100
AcDbMText
 10
8.752291679382326
 20
36.21458339691162
 30
0.0
 40
0.0
 41
0.0
 46
0.0
 71
     1
 72
     1
  1
\H3.5;\W0.965;\Q15;\Q15;Подп. и дата
  7
KTEXTSTYLE
 11
6.123233995736766E-17
 21
1.0
 31
0.0
 73
     1
 44
1.0
  0
MTEXT
  5
236
330
1F5
100
AcDbEntity
  8
0
 62
     7
100
AcDbMText
 10
8.752291679382328
 20
66.21458435058594
 30
0.0
 40
0.0
 41
0.0
 46
0.0
 71
     1
 72
     1
  1
\H3.5;\W0.965;\Q15;\Q15;Взам. инв. №
  7
KTEXTSTYLE
 11
6.123233995736766E-17
 21
1.0
 31
0.0
 73
     1
 44
1.0
  0
MTEXT
  5
237
330
1F5
100
AcDbEntity
  8
0
 62
     7
100
AcDbMText
 10
8.75229167938233
 20
91.78437519073486
 30
0.0
 40
0.0
 41
0.0
 46
0.0
 71
     1
 72
     1
  1
\H3.5;\W0.965;\Q15;\Q15;Инв. № дубл.
  7
KTEXTSTYLE
 11
6.123233995736766E-17
 21
1.0
 31
0.0
 73
     1
 44
1.0
  0
MTEXT
  5
238
330
1F5
100
AcDbEntity
  8
0
 62
     7
100
AcDbMText
 10
8.752291679382331
 20
121.2145833969116
 30
0.0
 40
0.0
 41
0.0
 46
0.0
 71
     1
 72
     1
  1
\H3.5;\W0.965;\Q15;\Q15;Подп. и дата
  7
KTEXTSTYLE
 11
6.123233995736766E-17
 21
1.0
 31
0.0
 73
     1
 44
1.0
  0
LINE
  5
239
330
1F5
100
AcDbEntity
  8
0
  6
K5LT_BASIC
 62
     5
420
      255
370
    60
100
AcDbLine
 10
8.0
 20
172.0
 30
0.0
 11
8.000000000000007
 21
292.0
 31
0.0
  0
LINE
  5
23A
330
1F5
100
AcDbEntity
  8
0
  6
K5LT_BASIC
 62
     5
420
      255
370
    60
100
AcDbLine
 10
13.0
 20
172.0
 30
0.0
 11
13.00000000000001
 21
292.0
 31
0.0
  0
LINE
  5
23B
330
1F5
100
AcDbEntity
  8
0
  6
K5LT_BASIC
 62
     5
420
      255
370
    60
100
AcDbLine
 10
20.0
 20
172.0
 30
0.0
 11
8.0
 21
172.0
 31
0.0
  0
LINE
  5
23C
330
1F5
100
AcDbEntity
  8
0
  6
K5LT_BASIC
 62
     5
420
      255
370
    60
100
AcDbLine
 10
20.00000000000001
 20
292.0
 30
0.0
 11
8.000000000000007
 21
292.0
 31
0.0
  0
LINE
  5
23D
330
1F5
100
AcDbEntity
  8
0
  6
K5LT_BASIC
 62
     5
420
      255
370
    60
100
AcDbLine
 10
20.0
 20
232.0
 30
0.0
 11
8.000000000000004
 21
232.0
 31
0.0
  0
MTEXT
  5
23E
330
1F5
100
AcDbEntity
  8
0
 62
     7
100
AcDbMText
 10
8.752291679382326
 20
194.0218753814697
 30
0.0
 40
0.0
 41
0.0
 46
0.0
 71
     1
 72
     1
  1
\H3.5;\W0.965;\Q15;\Q15;Справ. №
  7
KTEXTSTYLE
 11
6.123233995736766E-17
 21
1.0
 31
0.0
 73
     1
 44
1.0
  0
MTEXT
  5
23F
330
1F5
100
AcDbEntity
  8
0
 62
     7
100
AcDbMText
 10
8.75229167938233
 20
250.8875007629395
 30
0.0
 40
0.0
 41
0.0
 46
0.0
 71
     1
 72
     1
  1
\H3.5;\W0.965;\Q15;\Q15;Перв. примен.
  7
KTEXTSTYLE
 11
6.123233995736766E-17
 21
1.0
 31
0.0
 73
     1
 44
1.0
  0
LINE
  5
240
330
1F5
100
AcDbEntity
  8
0
  6
K5LT_BASIC
 62
     5
420
      255
370
    60
100
AcDbLine
 10
90.0
 20
575.0
 30
0.0
 11
20.0
 21
575.0
 31
0.0
  0
LINE
  5
241
330
1F5
100
AcDbEntity
  8
0
  6
K5LT_BASIC
 62
     5
420
      255
370
    60
100
AcDbLine
 10
90.0
 20
589.0
 30
0.0
 11
90.0
 21
575.0
 31
0.0
  0
MTEXT
  5
242
330
1F5
100
AcDbEntity
  8
0
 62
     7
100
AcDbMText
 10
84.93363571166992
 20
578.54665184021
 30
0.0
 40
0.0
 41
0.0
 46
0.0
 71
     1
 72
     1
  1
\H3.5;\W0.965;\Q15;\Q15;\W0.273;\H7.00;Автопилот стабилизации движения маневренного самолета
  7
KTEXTSTYLE
 11
-1.0
 21
1.224646799147353E-16
 31
0.0
 73
     1
 44
1.0
  0
MTEXT
  5
243
330
1F5
100
AcDbEntity
  8
0
 62
     7
100
AcDbMText
 10
726.5
 20
4.247708320617676
 30
0.0
 40
0.0
 41
0.0
 46
0.0
 71
     1
 72
     1
  1
\H3.5;\W0.965;\Q15;\Q15;Копировал
  7
KTEXTSTYLE
 73
     1
 44
1.0
  0
MTEXT
  5
244
330
1F5
100
AcDbEntity
  8
0
 62
     7
100
AcDbMText
 10
796.5
 20
4.247708320617676
 30
0.0
 40
0.0
 41
0.0
 46
0.0
 71
     1
 72
     1
  1
\H3.5;\W0.965;\Q15;\Q15;Формат
  7
KTEXTSTYLE
 73
     1
 44
1.0
  0
MTEXT
  5
245
330
1F5
100
AcDbEntity
  8
0
 62
     7
100
AcDbMText
 10
816.5
 20
4.22667407989502
 30
0.0
 40
0.0
 41
0.0
 46
0.0
 71
     1
 72
     1
  1
\H3.5;\W0.965;\Q15;\Q15;A1
  7
KTEXTSTYLE
 73
     1
 44
1.0
  0
LINE
  5
246
330
1F5
100
AcDbEntity
  8
0
  6
K5LT_BASIC
 62
     5
420
      255
370
    60
100
AcDbLine
 10
20.0
 20
5.0
 30
0.0
 11
20.0
 21
589.0
 31
0.0
  0
LINE
  5
247
330
1F5
100
AcDbEntity
  8
0
  6
K5LT_BASIC
 62
     5
420
      255
370
    60
100
AcDbLine
 10
20.0
 20
589.0
 30
0.0
 11
836.0
 21
589.0
 31
0.0
  0
LINE
  5
248
330
1F5
100
AcDbEntity
  8
0
  6
K5LT_BASIC
 62
     5
420
      255
370
    60
100
AcDbLine
 10
836.0
 20
589.0
 30
0.0
 11
836.0
 21
5.0
 31
0.0
  0
LINE
  5
249
330
1F5
100
AcDbEntity
  8
0
  6
K5LT_BASIC
 62
     5
420
      255
370
    60
100
AcDbLine
 10
836.0
 20
5.0
 30
0.0
 11
20.0
 21
5.0
 31
0.0
  0
LINE
  5
24A
330
1F5
100
AcDbEntity
  8
0
  6
K5LT_THIN
 62
     7
370
    18
100
AcDbLine
 10
0.0
 20
0.0
 30
0.0
 11
0.0
 21
594.0
 31
0.0
  0
LINE
  5
24B
330
1F5
100
AcDbEntity
  8
0
  6
K5LT_THIN
 62
     7
370
    18
100
AcDbLine
 10
0.0
 20
594.0
 30
0.0
 11
841.0
 21
594.0
 31
0.0
  0
LINE
  5
24C
330
1F5
100
AcDbEntity
  8
0
  6
K5LT_THIN
 62
     7
370
    18
100
AcDbLine
 10
841.0
 20
594.0
 30
0.0
 11
841.0
 21
0.0
 31
0.0
  0
LINE
  5
24D
330
1F5
100
AcDbEntity
  8
0
  6
K5LT_THIN
 62
     7
370
    18
100
AcDbLine
 10
841.0
 20
0.0
 30
0.0
 11
0.0
 21
0.0
 31
0.0
  0
ENDBLK
  5
24F
330
1F5
100
AcDbEntity
  8
0
100
AcDbBlockEnd
  0
ENDSEC
  0
SECTION
  2
ENTITIES
  0
IMAGE
  5
A7
330
1F
100
AcDbEntity
  8
0
 92
      140
310
8C0000000100000084000000060000000500000042F1CFE681BA55407A356005CDE259400000000000000000211F8F733F6671407A356005CDE259400000000000000000211F8F733F667140C9F153F3A3DC6E40000000000000000043F1CFE681BA5540C9F153F3A3DC6E40000000000000000042F1CFE681BA55407A3560
310
05CDE259400000000000000000
100
AcDbRasterImage
 90
        0
 10
86.91417856509091
 20
103.5437634887257
 30
0.0
 11
0.3413125
 21
0.0
 31
0.0
 12
2.089936303169905E-17
 22
0.3413125000000001
 32
0.0
 13
561.0
 23
420.0
340
A5
 70
    15
280
     0
281
    50
282
    50
283
     0
360
A8
 71
     1
 91
        2
 14
-0.5
 24
-0.5
 14
560.5
 24
419.5
  0
MTEXT
  5
AA
330
1F
100
AcDbEntity
  8
0
 62
     7
100
AcDbMText
 10
291.4363497673061
 20
543.4887976667565
 30
0.0
 40
0.0
 41
0.0
 46
0.0
 71
     1
 72
     1
  1
\H3.5;\W0.965;\Q15;\Q15;\H14.00;Аппроксимация передаточных чисел АП
  7
KTEXTSTYLE
 73
     1
 44
1.0
  0
INSERT
  5
AC
330
1F
100
AcDbEntity
  8
0
100
AcDbBlockReference
  2
U0
 10
0.0
 20
0.0
 30
0.0
  0
INSERT
  5
1AB
330
1F
100
AcDbEntity
  8
0
100
AcDbBlockReference
  2
U1
 10
0.0
 20
0.0
 30
0.0
  0
MTEXT
  5
1B0
330
1F
100
AcDbEntity
  8
0
 62
     7
100
AcDbMText
 10
88.24829347463765
 20
496.428931672262
 30
0.0
 40
0.0
 41
0.0
 46
0.0
 71
     1
 72
     1
  1
\H3.5;\W0.965;\Q15;\Q15;\H10.00;Расчетные, скорректированные и аппроксимированные передаточные числа
  7
KTEXTSTYLE
 73
     1
 44
1.0
  0
INSERT
  5
1B2
330
1F
100
AcDbEntity
  8
0
100
AcDbBlockReference
  2
U2
 10
0.0
 20
0.0
 30
0.0
  0
INSERT
  5
1D0
330
1F
100
AcDbEntity
  8
0
100
AcDbBlockReference
  2
U6
 10
0.0
 20
0.0
 30
0.0
  0
INSERT
  5
1E4
330
1F
100
AcDbEntity
  8
0
100
AcDbBlockReference
  2
U9
 10
0.0
 20
0.0
 30
0.0
  0
INSERT
  5
1F6
330
1F
100
AcDbEntity
  8
0
100
AcDbBlockReference
  2
U11
 10
0.0
 20
0.0
 30
0.0
  0
ENDSEC
  0
SECTION
  2
OBJECTS
  0
DICTIONARY
  5
C
330
0
100
AcDbDictionary
281
     1
  3
ACAD_GROUP
350
D
  3
ACAD_IMAGE_DICT
350
A4
  3
ACAD_IMAGE_VARS
350
A6
  3
ACAD_LAYOUT
350
1A
  3
ACAD_MATERIAL
350
3B
  3
ACAD_MLEADERSTYLE
350
295
  3
ACAD_MLINESTYLE
350
17
  3
ACAD_PLOTSETTINGS
350
19
  3
ACAD_PLOTSTYLENAME
350
E
  3
ACAD_SCALELIST
350
250
  3
ACAD_TABLESTYLE
350
294
  3
ACAD_VISUALSTYLE
350
2A
  3
AcDbVariableDictionary
350
272
  0
IMAGEDEF_REACTOR
  5
1B5
330
1B4
100
AcDbRasterImageDefReactor
 90
        2
330
1B4
  0
IMAGEDEF_REACTOR
  5
1E7
330
1E6
100
AcDbRasterImageDefReactor
 90
        2
330
1E6
  0
IMAGEDEF_REACTOR
  5
A8
330
A7
100
AcDbRasterImageDefReactor
 90
        2
330
A7
  0
DICTIONARY
  5
D
102
{ACAD_REACTORS
330
C
102
}
330
C
100
AcDbDictionary
281
     1
  0
DICTIONARY
  5
A4
102
{ACAD_REACTORS
330
C
102
}
330
C
100
AcDbDictionary
281
     1
  3
i.jpg
350
1E5
  3
mu.jpg
350
A5
  3
nu.jpg
350
1B3
  0
RASTERVARIABLES
  5
A6
102
{ACAD_REACTORS
330
C
102
}
330
C
100
AcDbRasterVariables
 90
        0
 70
     1
 71
     1
 72
     1
  0
DICTIONARY
  5
1A
102
{ACAD_REACTORS
330
C
102
}
330
C
100
AcDbDictionary
281
     1
  3
Layout1
350
1E
  3
Layout2
350
26
  3
Model
350
22
  0
DICTIONARY
  5
3B
102
{ACAD_REACTORS
330
C
102
}
330
C
100
AcDbDictionary
281
     1
  3
ByBlock
350
3D
  3
ByLayer
350
3C
  3
Global
350
3E
  0
DICTIONARY
  5
295
102
{ACAD_REACTORS
330
C
102
}
330
C
100
AcDbDictionary
281
     1
  0
DICTIONARY
  5
17
102
{ACAD_REACTORS
330
C
102
}
330
C
100
AcDbDictionary
281
     1
  3
Standard
350
18
  0
DICTIONARY
  5
19
102
{ACAD_REACTORS
330
C
102
}
330
C
100
AcDbDictionary
281
     1
  0
ACDBDICTIONARYWDFLT
  5
E
102
{ACAD_REACTORS
330
C
102
}
330
C
100
AcDbDictionary
281
     1
  3
Normal
350
F
100
AcDbDictionaryWithDefault
340
F
  0
DICTIONARY
  5
250
102
{ACAD_REACTORS
330
C
102
}
330
C
100
AcDbDictionary
281
     1
  3
A0
350
251
  3
A1
350
252
  3
A2
350
253
  3
A3
350
254
  3
A4
350
255
  3
A5
350
256
  3
A6
350
257
  3
A7
350
258
  3
A8
350
259
  3
A9
350
25A
  3
B0
350
25B
  3
B1
350
25C
  3
B2
350
25D
  3
B3
350
25E
  3
B4
350
25F
  3
B5
350
260
  3
B6
350
261
  3
B7
350
262
  3
B8
350
263
  3
B9
350
264
  3
C0
350
265
  3
C1
350
266
  3
C2
350
267
  3
C3
350
268
  3
C4
350
269
  3
C5
350
26A
  3
C6
350
26B
  3
C7
350
26C
  3
C8
350
26D
  3
C9
350
26E
  3
D0
350
26F
  3
D1
350
270
  3
D2
350
271
  0
DICTIONARY
  5
294
102
{ACAD_REACTORS
330
C
102
}
330
C
100
AcDbDictionary
281
     1
  0
DICTIONARY
  5
2A
102
{ACAD_REACTORS
330
C
102
}
330
C
100
AcDbDictionary
281
     1
  3
2dWireframe
350
2F
  3
3D Hidden
350
31
  3
3dWireframe
350
30
  3
Basic
350
32
  3
Brighten
350
36
  3
ColorChange
350
3A
  3
Conceptual
350
34
  3
Dim
350
35
  3
Facepattern
350
39
  3
Flat
350
2B
  3
FlatWithEdges
350
2C
  3
Gouraud
350
2D
  3
GouraudWithEdges
350
2E
  3
Linepattern
350
38
  3
Realistic
350
33
  3
Thicken
350
37
  0
DICTIONARY
  5
272
102
{ACAD_REACTORS
330
C
102
}
330
C
100
AcDbDictionary
281
     1
  3
CANNOSCALE
350
273
  0
IMAGEDEF
  5
1E5
102
{ACAD_REACTORS
330
A4
330
1E7
102
}
330
A4
100
AcDbRasterImageDef
 90
        0
  1
\\SERVER\disk_2\baumanka\DIPLOM\чертежи\pics\i.jpg
 10
605.0
 20
396.0
 11
0.2645833333333333
 21
0.2645833333333333
280
     1
281
     5
  0
IMAGEDEF
  5
A5
102
{ACAD_REACTORS
330
A4
330
A8
102
}
330
A4
100
AcDbRasterImageDef
 90
        0
  1
\\SERVER\disk_2\baumanka\DIPLOM\чертежи\pics\mu.jpg
 10
561.0
 20
420.0
 11
0.2645833333333333
 21
0.2645833333333333
280
     1
281
     5
  0
IMAGEDEF
  5
1B3
102
{ACAD_REACTORS
330
A4
330
1B5
102
}
330
A4
100
AcDbRasterImageDef
 90
        0
  1
\\SERVER\disk_2\baumanka\DIPLOM\чертежи\pics\nu.jpg
 10
594.0
 20
329.0
 11
0.2645833333333333
 21
0.2645833333333333
280
     1
281
     5
  0
LAYOUT
  5
1E
102
{ACAD_REACTORS
330
1A
102
}
330
1A
100
AcDbPlotSettings
  1

  2
none_device
  4

  6

 40
0.0
 41
0.0
 42
0.0
 43
0.0
 44
0.0
 45
0.0
 46
0.0
 47
0.0
 48
0.0
 49
0.0
140
0.0
141
0.0
142
1.0
143
1.0
 70
   688
 72
     0
 73
     0
 74
     5
  7

 75
    16
 76
     0
 77
     2
 78
   300
147
1.0
148
0.0
149
0.0
100
AcDbLayout
  1
Layout1
 70
     1
 71
     1
 10
0.0
 20
0.0
 11
420.0
 21
297.0
 12
0.0
 22
0.0
 32
0.0
 14
1.000000000000000E+20
 24
1.000000000000000E+20
 34
1.000000000000000E+20
 15
-1.000000000000000E+20
 25
-1.000000000000000E+20
 35
-1.000000000000000E+20
146
0.0
 13
0.0
 23
0.0
 33
0.0
 16
1.0
 26
0.0
 36
0.0
 17
0.0
 27
1.0
 37
0.0
 76
     0
330
1B
  0
LAYOUT
  5
26
102
{ACAD_REACTORS
330
1A
102
}
330
1A
100
AcDbPlotSettings
  1

  2
none_device
  4

  6

 40
0.0
 41
0.0
 42
0.0
 43
0.0
 44
0.0
 45
0.0
 46
0.0
 47
0.0
 48
0.0
 49
0.0
140
0.0
141
0.0
142
1.0
143
1.0
 70
   688
 72
     0
 73
     0
 74
     5
  7

 75
    16
 76
     0
 77
     2
 78
   300
147
1.0
148
0.0
149
0.0
100
AcDbLayout
  1
Layout2
 70
     1
 71
     2
 10
0.0
 20
0.0
 11
0.0
 21
0.0
 12
0.0
 22
0.0
 32
0.0
 14
0.0
 24
0.0
 34
0.0
 15
0.0
 25
0.0
 35
0.0
146
0.0
 13
0.0
 23
0.0
 33
0.0
 16
1.0
 26
0.0
 36
0.0
 17
0.0
 27
1.0
 37
0.0
 76
     0
330
23
  0
LAYOUT
  5
22
102
{ACAD_REACTORS
330
1A
102
}
330
1A
100
AcDbPlotSettings
  1

  2
none_device
  4

  6

 40
0.0
 41
0.0
 42
0.0
 43
0.0
 44
0.0
 45
0.0
 46
0.0
 47
0.0
 48
0.0
 49
0.0
140
0.0
141
0.0
142
1.0
143
1.0
 70
  1712
 72
     0
 73
     0
 74
     0
  7

 75
     0
 76
     0
 77
     2
 78
   300
147
1.0
148
0.0
149
0.0
100
AcDbLayout
  1
Model
 70
     1
 71
     0
 10
0.0
 20
0.0
 11
420.0
 21
297.0
 12
0.0
 22
0.0
 32
0.0
 14
1.000000000000000E+20
 24
1.000000000000000E+20
 34
1.000000000000000E+20
 15
-1.000000000000000E+20
 25
-1.000000000000000E+20
 35
-1.000000000000000E+20
146
0.0
 13
0.0
 23
0.0
 33
0.0
 16
1.0
 26
0.0
 36
0.0
 17
0.0
 27
1.0
 37
0.0
 76
     0
330
1F
331
29
  0
MATERIAL
  5
3D
102
{ACAD_REACTORS
330
3B
102
}
330
3B
100
AcDbMaterial
  1
ByBlock
 72
     1
 94
      127
  0
MATERIAL
  5
3C
102
{ACAD_REACTORS
330
3B
102
}
330
3B
100
AcDbMaterial
  1
ByLayer
 72
     1
 94
      127
  0
MATERIAL
  5
3E
102
{ACAD_REACTORS
330
3B
102
}
330
3B
100
AcDbMaterial
  1
Global
 72
     1
 94
      127
  0
MLINESTYLE
  5
18
102
{ACAD_REACTORS
330
17
102
}
330
17
100
AcDbMlineStyle
  2
Standard
 70
     0
  3

 62
   256
 51
90.0
 52
90.0
 71
     2
 49
0.5
 62
   256
  6
BYLAYER
 49
-0.5
 62
   256
  6
BYLAYER
  0
ACDBPLACEHOLDER
  5
F
102
{ACAD_REACTORS
330
E
102
}
330
E
  0
SCALE
  5
251
102
{ACAD_REACTORS
330
250
102
}
330
250
100
AcDbScale
 70
     0
300
1:1
140
1.0
141
1.0
290
     1
  0
SCALE
  5
252
102
{ACAD_REACTORS
330
250
102
}
330
250
100
AcDbScale
 70
     0
300
1:2
140
1.0
141
2.0
290
     0
  0
SCALE
  5
253
102
{ACAD_REACTORS
330
250
102
}
330
250
100
AcDbScale
 70
     0
300
1:4
140
1.0
141
4.0
290
     0
  0
SCALE
  5
254
102
{ACAD_REACTORS
330
250
102
}
330
250
100
AcDbScale
 70
     0
300
1:5
140
1.0
141
5.0
290
     0
  0
SCALE
  5
255
102
{ACAD_REACTORS
330
250
102
}
330
250
100
AcDbScale
 70
     0
300
1:8
140
1.0
141
8.0
290
     0
  0
SCALE
  5
256
102
{ACAD_REACTORS
330
250
102
}
330
250
100
AcDbScale
 70
     0
300
1:10
140
1.0
141
10.0
290
     0
  0
SCALE
  5
257
102
{ACAD_REACTORS
330
250
102
}
330
250
100
AcDbScale
 70
     0
300
1:16
140
1.0
141
16.0
290
     0
  0
SCALE
  5
258
102
{ACAD_REACTORS
330
250
102
}
330
250
100
AcDbScale
 70
     0
300
1:20
140
1.0
141
20.0
290
     0
  0
SCALE
  5
259
102
{ACAD_REACTORS
330
250
102
}
330
250
100
AcDbScale
 70
     0
300
1:30
140
1.0
141
30.0
290
     0
  0
SCALE
  5
25A
102
{ACAD_REACTORS
330
250
102
}
330
250
100
AcDbScale
 70
     0
300
1:40
140
1.0
141
40.0
290
     0
  0
SCALE
  5
25B
102
{ACAD_REACTORS
330
250
102
}
330
250
100
AcDbScale
 70
     0
300
1:50
140
1.0
141
50.0
290
     0
  0
SCALE
  5
25C
102
{ACAD_REACTORS
330
250
102
}
330
250
100
AcDbScale
 70
     0
300
1:100
140
1.0
141
100.0
290
     0
  0
SCALE
  5
25D
102
{ACAD_REACTORS
330
250
102
}
330
250
100
AcDbScale
 70
     0
300
2:1
140
2.0
141
1.0
290
     0
  0
SCALE
  5
25E
102
{ACAD_REACTORS
330
250
102
}
330
250
100
AcDbScale
 70
     0
300
4:1
140
4.0
141
1.0
290
     0
  0
SCALE
  5
25F
102
{ACAD_REACTORS
330
250
102
}
330
250
100
AcDbScale
 70
     0
300
8:1
140
8.0
141
1.0
290
     0
  0
SCALE
  5
260
102
{ACAD_REACTORS
330
250
102
}
330
250
100
AcDbScale
 70
     0
300
10:1
140
10.0
141
1.0
290
     0
  0
SCALE
  5
261
102
{ACAD_REACTORS
330
250
102
}
330
250
100
AcDbScale
 70
     0
300
100:1
140
100.0
141
1.0
290
     0
  0
SCALE
  5
262
102
{ACAD_REACTORS
330
250
102
}
330
250
100
AcDbScale
 70
     0
300
1/128" = 1'-0"
140
0.0078125
141
12.0
290
     0
  0
SCALE
  5
263
102
{ACAD_REACTORS
330
250
102
}
330
250
100
AcDbScale
 70
     0
300
1/64" = 1'-0"
140
0.015625
141
12.0
290
     0
  0
SCALE
  5
264
102
{ACAD_REACTORS
330
250
102
}
330
250
100
AcDbScale
 70
     0
300
1/32" = 1'-0"
140
0.03125
141
12.0
290
     0
  0
SCALE
  5
265
102
{ACAD_REACTORS
330
250
102
}
330
250
100
AcDbScale
 70
     0
300
1/16" = 1'-0"
140
0.0625
141
12.0
290
     0
  0
SCALE
  5
266
102
{ACAD_REACTORS
330
250
102
}
330
250
100
AcDbScale
 70
     0
300
3/32" = 1'-0"
140
0.09375
141
12.0
290
     0
  0
SCALE
  5
267
102
{ACAD_REACTORS
330
250
102
}
330
250
100
AcDbScale
 70
     0
300
1/8" = 1'-0"
140
0.125
141
12.0
290
     0
  0
SCALE
  5
268
102
{ACAD_REACTORS
330
250
102
}
330
250
100
AcDbScale
 70
     0
300
3/16" = 1'-0"
140
0.1875
141
12.0
290
     0
  0
SCALE
  5
269
102
{ACAD_REACTORS
330
250
102
}
330
250
100
AcDbScale
 70
     0
300
1/4" = 1'-0"
140
0.25
141
12.0
290
     0
  0
SCALE
  5
26A
102
{ACAD_REACTORS
330
250
102
}
330
250
100
AcDbScale
 70
     0
300
3/8" = 1'-0"
140
0.375
141
12.0
290
     0
  0
SCALE
  5
26B
102
{ACAD_REACTORS
330
250
102
}
330
250
100
AcDbScale
 70
     0
300
1/2" = 1'-0"
140
0.5
141
12.0
290
     0
  0
SCALE
  5
26C
102
{ACAD_REACTORS
330
250
102
}
330
250
100
AcDbScale
 70
     0
300
3/4" = 1'-0"
140
0.75
141
12.0
290
     0
  0
SCALE
  5
26D
102
{ACAD_REACTORS
330
250
102
}
330
250
100
AcDbScale
 70
     0
300
1" = 1'-0"
140
1.0
141
12.0
290
     0
  0
SCALE
  5
26E
102
{ACAD_REACTORS
330
250
102
}
330
250
100
AcDbScale
 70
     0
300
1-1/2" = 1'-0"
140
1.5
141
12.0
290
     0
  0
SCALE
  5
26F
102
{ACAD_REACTORS
330
250
102
}
330
250
100
AcDbScale
 70
     0
300
3" = 1'-0"
140
3.0
141
12.0
290
     0
  0
SCALE
  5
270
102
{ACAD_REACTORS
330
250
102
}
330
250
100
AcDbScale
 70
     0
300
6" = 1'-0"
140
6.0
141
12.0
290
     0
  0
SCALE
  5
271
102
{ACAD_REACTORS
330
250
102
}
330
250
100
AcDbScale
 70
     0
300
1'-0" = 1'-0"
140
12.0
141
12.0
290
     0
  0
VISUALSTYLE
  5
2F
102
{ACAD_REACTORS
330
2A
102
}
102
{ACAD_XDICTIONARY
360
27C
102
}
330
2A
100
AcDbVisualStyle
  2
2dWireframe
 70
     4
 71
     0
 72
     2
 73
     0
 90
        0
 40
-0.6
 41
-30.0
 62
     5
 63
     7
421
 16777215
 74
     1
 91
        4
 64
     7
 65
   257
 75
     1
175
     1
 42
1.0
 92
        0
 66
   257
 43
1.0
 76
     1
 77
     6
 78
     2
 67
     7
 79
     5
170
     0
171
     0
290
     0
174
     0
 93
        1
 44
0.0
173
     0
291
     0
 45
0.0
  0
VISUALSTYLE
  5
31
102
{ACAD_REACTORS
330
2A
102
}
102
{ACAD_XDICTIONARY
360
280
102
}
330
2A
100
AcDbVisualStyle
  2
3D Hidden
 70
     6
 71
     1
 72
     2
 73
     2
 90
        0
 40
-0.6
 41
-30.0
 62
     5
 63
     7
421
 16777215
 74
     2
 91
        2
 64
     7
 65
   257
 75
     2
175
     1
 42
40.0
 92
        0
 66
   257
 43
1.0
 76
     1
 77
     6
 78
     2
 67
     7
 79
     3
170
     0
171
     0
290
     0
174
     0
 93
        1
 44
0.0
173
     0
291
     0
 45
0.0
  0
VISUALSTYLE
  5
30
102
{ACAD_REACTORS
330
2A
102
}
102
{ACAD_XDICTIONARY
360
27E
102
}
330
2A
100
AcDbVisualStyle
  2
3dWireframe
 70
     5
 71
     0
 72
     2
 73
     0
 90
        0
 40
-0.6
 41
-30.0
 62
     5
 63
     7
421
 16777215
 74
     1
 91
        4
 64
     7
 65
   257
 75
     1
175
     1
 42
1.0
 92
        0
 66
   257
 43
1.0
 76
     1
 77
     6
 78
     2
 67
     7
 79
     5
170
     0
171
     0
290
     0
174
     0
 93
        1
 44
0.0
173
     0
291
     0
 45
0.0
  0
VISUALSTYLE
  5
32
102
{ACAD_REACTORS
330
2A
102
}
102
{ACAD_XDICTIONARY
360
282
102
}
330
2A
100
AcDbVisualStyle
  2
Basic
 70
     7
 71
     1
 72
     0
 73
     1
 90
        0
 40
-0.6
 41
-30.0
 62
     5
 63
     7
421
 16777215
 74
     0
 91
        4
 64
     7
 65
   257
 75
     1
175
     1
 42
1.0
 92
        8
 66
     7
 43
1.0
 76
     1
 77
     6
 78
     2
 67
     7
 79
     5
170
     0
171
     0
290
     0
174
     0
 93
        1
 44
0.0
173
     0
291
     1
 45
0.0
  0
VISUALSTYLE
  5
36
102
{ACAD_REACTORS
330
2A
102
}
102
{ACAD_XDICTIONARY
360
28A
102
}
330
2A
100
AcDbVisualStyle
  2
Brighten
 70
    12
 71
     2
 72
     2
 73
     0
 90
        0
 40
-0.6
 41
-30.0
 62
     5
 63
     7
421
 16777215
 74
     1
 91
        4
 64
     7
 65
   257
 75
     1
175
     1
 42
1.0
 92
        8
 66
     7
 43
1.0
 76
     1
 77
     6
 78
     2
 67
     7
 79
     5
170
     0
171
     0
290
     0
174
     0
 93
        1
 44
50.0
173
     0
291
     1
 45
0.0
  0
VISUALSTYLE
  5
3A
102
{ACAD_REACTORS
330
2A
102
}
102
{ACAD_XDICTIONARY
360
292
102
}
330
2A
100
AcDbVisualStyle
  2
ColorChange
 70
    16
 71
     2
 72
     2
 73
     3
 90
        0
 40
-0.6
 41
-30.0
 62
     5
 63
     8
421
  8421504
 74
     1
 91
        4
 64
     7
 65
   257
 75
     1
175
     1
 42
1.0
 92
        8
 66
     8
424
  8421504
 43
1.0
 76
     1
 77
     6
 78
     2
 67
     7
 79
     5
170
     0
171
     0
290
     0
174
     0
 93
        1
 44
0.0
173
     0
291
     1
 45
0.0
  0
VISUALSTYLE
  5
34
102
{ACAD_REACTORS
330
2A
102
}
102
{ACAD_XDICTIONARY
360
286
102
}
330
2A
100
AcDbVisualStyle
  2
Conceptual
 70
     9
 71
     3
 72
     2
 73
     0
 90
        0
 40
-0.6
 41
-30.0
 62
     5
 63
     7
421
 16777215
 74
     2
 91
        2
 64
     7
 65
   257
 75
     1
175
     1
 42
40.0
 92
        8
 66
     7
 43
1.0
 76
     1
 77
     6
 78
     2
 67
     7
 79
     3
170
     0
171
     0
290
     0
174
     0
 93
        1
 44
0.0
173
     0
291
     0
 45
0.0
  0
VISUALSTYLE
  5
35
102
{ACAD_REACTORS
330
2A
102
}
102
{ACAD_XDICTIONARY
360
288
102
}
330
2A
100
AcDbVisualStyle
  2
Dim
 70
    11
 71
     2
 72
     2
 73
     0
 90
        0
 40
-0.6
 41
-30.0
 62
     5
 63
     7
421
 16777215
 74
     1
 91
        4
 64
     7
 65
   257
 75
     1
175
     1
 42
1.0
 92
        8
 66
     7
 43
1.0
 76
     1
 77
     6
 78
     2
 67
     7
 79
     5
170
     0
171
     0
290
     0
174
     0
 93
        1
 44
-50.0
173
     0
291
     1
 45
0.0
  0
VISUALSTYLE
  5
39
102
{ACAD_REACTORS
330
2A
102
}
102
{ACAD_XDICTIONARY
360
290
102
}
330
2A
100
AcDbVisualStyle
  2
Facepattern
 70
    15
 71
     2
 72
     2
 73
     0
 90
        0
 40
-0.6
 41
-30.0
 62
     5
 63
     7
421
 16777215
 74
     1
 91
        4
 64
     7
 65
   257
 75
     1
175
     1
 42
1.0
 92
        8
 66
     7
 43
1.0
 76
     1
 77
     6
 78
     2
 67
     7
 79
     5
170
     0
171
     0
290
     0
174
     0
 93
        1
 44
0.0
173
     0
291
     1
 45
0.0
  0
VISUALSTYLE
  5
2B
102
{ACAD_REACTORS
330
2A
102
}
102
{ACAD_XDICTIONARY
360
274
102
}
330
2A
100
AcDbVisualStyle
  2
Flat
 70
     0
 71
     2
 72
     1
 73
     1
 90
        2
 40
-0.6
 41
30.0
 62
     5
 63
     7
421
 16777215
 74
     0
 91
        4
 64
     7
 65
   257
 75
     1
175
     1
 42
1.0
 92
        8
 66
     7
 43
1.0
 76
     1
 77
     6
 78
     2
 67
     7
 79
     5
170
     0
171
     0
290
     0
174
     0
 93
       13
 44
0.0
173
     0
291
     1
 45
0.0
  0
VISUALSTYLE
  5
2C
102
{ACAD_REACTORS
330
2A
102
}
102
{ACAD_XDICTIONARY
360
276
102
}
330
2A
100
AcDbVisualStyle
  2
FlatWithEdges
 70
     1
 71
     2
 72
     1
 73
     1
 90
        2
 40
-0.6
 41
30.0
 62
     5
 63
     7
421
 16777215
 74
     1
 91
        4
 64
     7
 65
   257
 75
     1
175
     1
 42
1.0
 92
        0
 66
   257
 43
1.0
 76
     1
 77
     6
 78
     2
 67
     7
 79
     5
170
     0
171
     0
290
     0
174
     0
 93
       13
 44
0.0
173
     0
291
     1
 45
0.0
  0
VISUALSTYLE
  5
2D
102
{ACAD_REACTORS
330
2A
102
}
102
{ACAD_XDICTIONARY
360
278
102
}
330
2A
100
AcDbVisualStyle
  2
Gouraud
 70
     2
 71
     2
 72
     2
 73
     1
 90
        2
 40
-0.6
 41
30.0
 62
     5
 63
     7
421
 16777215
 74
     0
 91
        4
 64
     7
 65
   257
 75
     1
175
     1
 42
1.0
 92
        0
 66
     7
 43
1.0
 76
     1
 77
     6
 78
     2
 67
     7
 79
     5
170
     0
171
     0
290
     0
174
     0
 93
       13
 44
0.0
173
     0
291
     1
 45
0.0
  0
VISUALSTYLE
  5
2E
102
{ACAD_REACTORS
330
2A
102
}
102
{ACAD_XDICTIONARY
360
27A
102
}
330
2A
100
AcDbVisualStyle
  2
GouraudWithEdges
 70
     3
 71
     2
 72
     2
 73
     1
 90
        2
 40
-0.6
 41
30.0
 62
     5
 63
     7
421
 16777215
 74
     1
 91
        4
 64
     7
 65
   257
 75
     1
175
     1
 42
1.0
 92
        0
 66
   257
 43
1.0
 76
     1
 77
     6
 78
     2
 67
     7
 79
     5
170
     0
171
     0
290
     0
174
     0
 93
       13
 44
0.0
173
     0
291
     1
 45
0.0
  0
VISUALSTYLE
  5
38
102
{ACAD_REACTORS
330
2A
102
}
102
{ACAD_XDICTIONARY
360
28E
102
}
330
2A
100
AcDbVisualStyle
  2
Linepattern
 70
    14
 71
     2
 72
     2
 73
     0
 90
        0
 40
-0.6
 41
-30.0
 62
     5
 63
     7
421
 16777215
 74
     1
 91
        4
 64
     7
 65
   257
 75
     7
175
     7
 42
1.0
 92
        8
 66
     7
 43
1.0
 76
     1
 77
     6
 78
     2
 67
     7
 79
     5
170
     0
171
     0
290
     0
174
     0
 93
        1
 44
0.0
173
     0
291
     1
 45
0.0
  0
VISUALSTYLE
  5
33
102
{ACAD_REACTORS
330
2A
102
}
102
{ACAD_XDICTIONARY
360
284
102
}
330
2A
100
AcDbVisualStyle
  2
Realistic
 70
     8
 71
     2
 72
     2
 73
     0
 90
        0
 40
-0.6
 41
-30.0
 62
     5
 63
     7
421
 16777215
 74
     1
 91
        0
 64
     7
 65
   257
 75
     1
175
     1
 42
1.0
 92
        8
 66
     8
424
  7895160
 43
1.0
 76
     1
 77
     6
 78
     2
 67
     7
 79
     5
170
     0
171
     0
290
     0
174
     0
 93
       13
 44
0.0
173
     0
291
     0
 45
0.0
  0
VISUALSTYLE
  5
37
102
{ACAD_REACTORS
330
2A
102
}
102
{ACAD_XDICTIONARY
360
28C
102
}
330
2A
100
AcDbVisualStyle
  2
Thicken
 70
    13
 71
     2
 72
     2
 73
     0
 90
        0
 40
-0.6
 41
-30.0
 62
     5
 63
     7
421
 16777215
 74
     1
 91
        4
 64
     7
 65
   257
 75
     1
175
     1
 42
1.0
 92
       12
 66
     7
 43
1.0
 76
     1
 77
     6
 78
     2
 67
     7
 79
     5
170
     0
171
     0
290
     0
174
     0
 93
        1
 44
0.0
173
     0
291
     1
 45
0.0
  0
DICTIONARYVAR
  5
273
102
{ACAD_REACTORS
330
272
102
}
330
272
100
DictionaryVariables
280
     0
  1
1:1
  0
DICTIONARY
  5
27C
330
2F
100
AcDbDictionary
280
     1
281
     1
  3
ACAD_XREC_ROUNDTRIP
360
27D
  0
DICTIONARY
  5
280
330
31
100
AcDbDictionary
280
     1
281
     1
  3
ACAD_XREC_ROUNDTRIP
360
281
  0
DICTIONARY
  5
27E
330
30
100
AcDbDictionary
280
     1
281
     1
  3
ACAD_XREC_ROUNDTRIP
360
27F
  0
DICTIONARY
  5
282
330
32
100
AcDbDictionary
280
     1
281
     1
  3
ACAD_XREC_ROUNDTRIP
360
283
  0
DICTIONARY
  5
28A
330
36
100
AcDbDictionary
280
     1
281
     1
  3
ACAD_XREC_ROUNDTRIP
360
28B
  0
DICTIONARY
  5
292
330
3A
100
AcDbDictionary
280
     1
281
     1
  3
ACAD_XREC_ROUNDTRIP
360
293
  0
DICTIONARY
  5
286
330
34
100
AcDbDictionary
280
     1
281
     1
  3
ACAD_XREC_ROUNDTRIP
360
287
  0
DICTIONARY
  5
288
330
35
100
AcDbDictionary
280
     1
281
     1
  3
ACAD_XREC_ROUNDTRIP
360
289
  0
DICTIONARY
  5
290
330
39
100
AcDbDictionary
280
     1
281
     1
  3
ACAD_XREC_ROUNDTRIP
360
291
  0
DICTIONARY
  5
274
330
2B
100
AcDbDictionary
280
     1
281
     1
  3
ACAD_XREC_ROUNDTRIP
360
275
  0
DICTIONARY
  5
276
330
2C
100
AcDbDictionary
280
     1
281
     1
  3
ACAD_XREC_ROUNDTRIP
360
277
  0
DICTIONARY
  5
278
330
2D
100
AcDbDictionary
280
     1
281
     1
  3
ACAD_XREC_ROUNDTRIP
360
279
  0
DICTIONARY
  5
27A
330
2E
100
AcDbDictionary
280
     1
281
     1
  3
ACAD_XREC_ROUNDTRIP
360
27B
  0
DICTIONARY
  5
28E
330
38
100
AcDbDictionary
280
     1
281
     1
  3
ACAD_XREC_ROUNDTRIP
360
28F
  0
DICTIONARY
  5
284
330
33
100
AcDbDictionary
280
     1
281
     1
  3
ACAD_XREC_ROUNDTRIP
360
285
  0
DICTIONARY
  5
28C
330
37
100
AcDbDictionary
280
     1
281
     1
  3
ACAD_XREC_ROUNDTRIP
360
28D
  0
XRECORD
  5
27D
102
{ACAD_REACTORS
330
27C
102
}
330
27C
100
AcDbXrecord
280
     1
102
RTVSPropertyOp0
 70
     1
102
RTVSPropertyOp1
 70
     1
102
RTVSPropertyOp2
 70
     1
102
RTVSPropertyOp3
 70
     1
102
RTVSPropertyOp4
 70
     1
102
RTVSPropertyOp5
 70
     1
102
RTVSPropertyOp6
 70
     1
102
RTVSPropertyOp7
 70
     1
102
RTVSPropertyOp8
 70
     1
102
RTVSPropertyOp9
 70
     1
102
RTVSPropertyOp10
 70
     1
102
RTVSPropertyOp11
 70
     1
102
RTVSPropertyOp12
 70
     1
102
RTVSPropertyOp13
 70
     1
102
RTVSPropertyOp14
 70
     1
102
RTVSPropertyOp15
 70
     1
102
RTVSPropertyOp16
 70
     1
102
RTVSPropertyOp17
 70
     1
102
RTVSPropertyOp18
 70
     1
102
RTVSPropertyOp19
 70
     1
102
RTVSPropertyOp20
 70
     1
102
RTVSPropertyOp21
 70
     1
102
RTVSPropertyOp22
 70
     1
102
RTVSPropertyOp23
 70
     1
102
RTVSPropertyOp24
 70
     1
102
RTVSPropertyOp25
 70
     1
102
RTVSPropertyOp26
 70
     1
102
RTVSPropertyOp27
 70
     1
102
RTVSPropertyOp28
 70
     1
102
RTVSPropertyOp29
 70
     1
102
RTVSPropertyOp30
 70
     1
102
RTVSPropertyOp31
 70
     1
102
RTVSPropertyOp32
 70
     1
  0
XRECORD
  5
281
102
{ACAD_REACTORS
330
280
102
}
330
280
100
AcDbXrecord
280
     1
102
RTVSPropertyOp0
 70
     1
102
RTVSPropertyOp1
 70
     1
102
RTVSPropertyOp2
 70
     1
102
RTVSPropertyOp3
 70
     1
102
RTVSPropertyOp4
 70
     1
102
RTVSPropertyOp5
 70
     1
102
RTVSPropertyOp6
 70
     1
102
RTVSPropertyOp7
 70
     1
102
RTVSPropertyOp8
 70
     1
102
RTVSPropertyOp9
 70
     1
102
RTVSPropertyOp10
 70
     1
102
RTVSPropertyOp11
 70
     1
102
RTVSPropertyOp12
 70
     1
102
RTVSPropertyOp13
 70
     1
102
RTVSPropertyOp14
 70
     1
102
RTVSPropertyOp15
 70
     1
102
RTVSPropertyOp16
 70
     1
102
RTVSPropertyOp17
 70
     1
102
RTVSPropertyOp18
 70
     1
102
RTVSPropertyOp19
 70
     1
102
RTVSPropertyOp20
 70
     1
102
RTVSPropertyOp21
 70
     1
102
RTVSPropertyOp22
 70
     1
102
RTVSPropertyOp23
 70
     1
102
RTVSPropertyOp24
 70
     1
102
RTVSPropertyOp25
 70
     1
102
RTVSPropertyOp26
 70
     1
102
RTVSPropertyOp27
 70
     1
102
RTVSPropertyOp28
 70
     1
102
RTVSPropertyOp29
 70
     1
102
RTVSPropertyOp30
 70
     1
102
RTVSPropertyOp31
 70
     1
102
RTVSPropertyOp32
 70
     1
  0
XRECORD
  5
27F
102
{ACAD_REACTORS
330
27E
102
}
330
27E
100
AcDbXrecord
280
     1
102
RTVSPropertyOp0
 70
     1
102
RTVSPropertyOp1
 70
     1
102
RTVSPropertyOp2
 70
     1
102
RTVSPropertyOp3
 70
     1
102
RTVSPropertyOp4
 70
     1
102
RTVSPropertyOp5
 70
     1
102
RTVSPropertyOp6
 70
     1
102
RTVSPropertyOp7
 70
     1
102
RTVSPropertyOp8
 70
     1
102
RTVSPropertyOp9
 70
     1
102
RTVSPropertyOp10
 70
     1
102
RTVSPropertyOp11
 70
     1
102
RTVSPropertyOp12
 70
     1
102
RTVSPropertyOp13
 70
     1
102
RTVSPropertyOp14
 70
     1
102
RTVSPropertyOp15
 70
     1
102
RTVSPropertyOp16
 70
     1
102
RTVSPropertyOp17
 70
     1
102
RTVSPropertyOp18
 70
     1
102
RTVSPropertyOp19
 70
     1
102
RTVSPropertyOp20
 70
     1
102
RTVSPropertyOp21
 70
     1
102
RTVSPropertyOp22
 70
     1
102
RTVSPropertyOp23
 70
     1
102
RTVSPropertyOp24
 70
     1
102
RTVSPropertyOp25
 70
     1
102
RTVSPropertyOp26
 70
     1
102
RTVSPropertyOp27
 70
     1
102
RTVSPropertyOp28
 70
     1
102
RTVSPropertyOp29
 70
     1
102
RTVSPropertyOp30
 70
     1
102
RTVSPropertyOp31
 70
     1
102
RTVSPropertyOp32
 70
     1
  0
XRECORD
  5
283
102
{ACAD_REACTORS
330
282
102
}
330
282
100
AcDbXrecord
280
     1
102
RTVSPropertyOp0
 70
     1
102
RTVSPropertyOp1
 70
     1
102
RTVSPropertyOp2
 70
     1
102
RTVSPropertyOp3
 70
     1
102
RTVSPropertyOp4
 70
     1
102
RTVSPropertyOp5
 70
     1
102
RTVSPropertyOp6
 70
     1
102
RTVSPropertyOp7
 70
     1
102
RTVSPropertyOp8
 70
     1
102
RTVSPropertyOp9
 70
     1
102
RTVSPropertyOp10
 70
     1
102
RTVSPropertyOp11
 70
     1
102
RTVSPropertyOp12
 70
     1
102
RTVSPropertyOp13
 70
     1
102
RTVSPropertyOp14
 70
     1
102
RTVSPropertyOp15
 70
     1
102
RTVSPropertyOp16
 70
     1
102
RTVSPropertyOp17
 70
     1
102
RTVSPropertyOp18
 70
     1
102
RTVSPropertyOp19
 70
     1
102
RTVSPropertyOp20
 70
     1
102
RTVSPropertyOp21
 70
     1
102
RTVSPropertyOp22
 70
     1
102
RTVSPropertyOp23
 70
     1
102
RTVSPropertyOp24
 70
     1
102
RTVSPropertyOp25
 70
     1
102
RTVSPropertyOp26
 70
     1
102
RTVSPropertyOp27
 70
     1
102
RTVSPropertyOp28
 70
     1
102
RTVSPropertyOp29
 70
     1
102
RTVSPropertyOp30
 70
     1
102
RTVSPropertyOp31
 70
     1
102
RTVSPropertyOp32
 70
     1
  0
XRECORD
  5
28B
102
{ACAD_REACTORS
330
28A
102
}
330
28A
100
AcDbXrecord
280
     1
102
RTVSPropertyOp0
 70
     1
102
RTVSPropertyOp1
 70
     1
102
RTVSPropertyOp2
 70
     1
102
RTVSPropertyOp3
 70
     1
102
RTVSPropertyOp4
 70
     1
102
RTVSPropertyOp5
 70
     1
102
RTVSPropertyOp6
 70
     1
102
RTVSPropertyOp7
 70
     1
102
RTVSPropertyOp8
 70
     1
102
RTVSPropertyOp9
 70
     1
102
RTVSPropertyOp10
 70
     1
102
RTVSPropertyOp11
 70
     1
102
RTVSPropertyOp12
 70
     1
102
RTVSPropertyOp13
 70
     1
102
RTVSPropertyOp14
 70
     1
102
RTVSPropertyOp15
 70
     1
102
RTVSPropertyOp16
 70
     1
102
RTVSPropertyOp17
 70
     1
102
RTVSPropertyOp18
 70
     1
102
RTVSPropertyOp19
 70
     1
102
RTVSPropertyOp20
 70
     1
102
RTVSPropertyOp21
 70
     1
102
RTVSPropertyOp22
 70
     1
102
RTVSPropertyOp23
 70
     1
102
RTVSPropertyOp24
 70
     1
102
RTVSPropertyOp25
 70
     1
102
RTVSPropertyOp26
 70
     1
102
RTVSPropertyOp27
 70
     1
102
RTVSPropertyOp28
 70
     1
102
RTVSPropertyOp29
 70
     1
102
RTVSPropertyOp30
 70
     1
102
RTVSPropertyOp31
 70
     1
102
RTVSPropertyOp32
 70
     1
  0
XRECORD
  5
293
102
{ACAD_REACTORS
330
292
102
}
330
292
100
AcDbXrecord
280
     1
102
RTVSPropertyOp0
 70
     1
102
RTVSPropertyOp1
 70
     1
102
RTVSPropertyOp2
 70
     1
102
RTVSPropertyOp3
 70
     1
102
RTVSPropertyOp4
 70
     1
102
RTVSPropertyOp5
 70
     1
102
RTVSPropertyOp6
 70
     1
102
RTVSPropertyOp7
 70
     1
102
RTVSPropertyOp8
 70
     1
102
RTVSPropertyOp9
 70
     1
102
RTVSPropertyOp10
 70
     1
102
RTVSPropertyOp11
 70
     1
102
RTVSPropertyOp12
 70
     1
102
RTVSPropertyOp13
 70
     1
102
RTVSPropertyOp14
 70
     1
102
RTVSPropertyOp15
 70
     1
102
RTVSPropertyOp16
 70
     1
102
RTVSPropertyOp17
 70
     1
102
RTVSPropertyOp18
 70
     1
102
RTVSPropertyOp19
 70
     1
102
RTVSPropertyOp20
 70
     1
102
RTVSPropertyOp21
 70
     1
102
RTVSPropertyOp22
 70
     1
102
RTVSPropertyOp23
 70
     1
102
RTVSPropertyOp24
 70
     1
102
RTVSPropertyOp25
 70
     1
102
RTVSPropertyOp26
 70
     1
102
RTVSPropertyOp27
 70
     1
102
RTVSPropertyOp28
 70
     1
102
RTVSPropertyOp29
 70
     1
102
RTVSPropertyOp30
 70
     1
102
RTVSPropertyOp31
 70
     1
102
RTVSPropertyOp32
 70
     1
  0
XRECORD
  5
287
102
{ACAD_REACTORS
330
286
102
}
330
286
100
AcDbXrecord
280
     1
102
RTVSPropertyOp0
 70
     1
102
RTVSPropertyOp1
 70
     1
102
RTVSPropertyOp2
 70
     1
102
RTVSPropertyOp3
 70
     1
102
RTVSPropertyOp4
 70
     1
102
RTVSPropertyOp5
 70
     1
102
RTVSPropertyOp6
 70
     1
102
RTVSPropertyOp7
 70
     1
102
RTVSPropertyOp8
 70
     1
102
RTVSPropertyOp9
 70
     1
102
RTVSPropertyOp10
 70
     1
102
RTVSPropertyOp11
 70
     1
102
RTVSPropertyOp12
 70
     1
102
RTVSPropertyOp13
 70
     1
102
RTVSPropertyOp14
 70
     1
102
RTVSPropertyOp15
 70
     1
102
RTVSPropertyOp16
 70
     1
102
RTVSPropertyOp17
 70
     1
102
RTVSPropertyOp18
 70
     1
102
RTVSPropertyOp19
 70
     1
102
RTVSPropertyOp20
 70
     1
102
RTVSPropertyOp21
 70
     1
102
RTVSPropertyOp22
 70
     1
102
RTVSPropertyOp23
 70
     1
102
RTVSPropertyOp24
 70
     1
102
RTVSPropertyOp25
 70
     1
102
RTVSPropertyOp26
 70
     1
102
RTVSPropertyOp27
 70
     1
102
RTVSPropertyOp28
 70
     1
102
RTVSPropertyOp29
 70
     1
102
RTVSPropertyOp30
 70
     1
102
RTVSPropertyOp31
 70
     1
102
RTVSPropertyOp32
 70
     1
  0
XRECORD
  5
289
102
{ACAD_REACTORS
330
288
102
}
330
288
100
AcDbXrecord
280
     1
102
RTVSPropertyOp0
 70
     1
102
RTVSPropertyOp1
 70
     1
102
RTVSPropertyOp2
 70
     1
102
RTVSPropertyOp3
 70
     1
102
RTVSPropertyOp4
 70
     1
102
RTVSPropertyOp5
 70
     1
102
RTVSPropertyOp6
 70
     1
102
RTVSPropertyOp7
 70
     1
102
RTVSPropertyOp8
 70
     1
102
RTVSPropertyOp9
 70
     1
102
RTVSPropertyOp10
 70
     1
102
RTVSPropertyOp11
 70
     1
102
RTVSPropertyOp12
 70
     1
102
RTVSPropertyOp13
 70
     1
102
RTVSPropertyOp14
 70
     1
102
RTVSPropertyOp15
 70
     1
102
RTVSPropertyOp16
 70
     1
102
RTVSPropertyOp17
 70
     1
102
RTVSPropertyOp18
 70
     1
102
RTVSPropertyOp19
 70
     1
102
RTVSPropertyOp20
 70
     1
102
RTVSPropertyOp21
 70
     1
102
RTVSPropertyOp22
 70
     1
102
RTVSPropertyOp23
 70
     1
102
RTVSPropertyOp24
 70
     1
102
RTVSPropertyOp25
 70
     1
102
RTVSPropertyOp26
 70
     1
102
RTVSPropertyOp27
 70
     1
102
RTVSPropertyOp28
 70
     1
102
RTVSPropertyOp29
 70
     1
102
RTVSPropertyOp30
 70
     1
102
RTVSPropertyOp31
 70
     1
102
RTVSPropertyOp32
 70
     1
  0
XRECORD
  5
291
102
{ACAD_REACTORS
330
290
102
}
330
290
100
AcDbXrecord
280
     1
102
RTVSPropertyOp0
 70
     1
102
RTVSPropertyOp1
 70
     1
102
RTVSPropertyOp2
 70
     1
102
RTVSPropertyOp3
 70
     1
102
RTVSPropertyOp4
 70
     1
102
RTVSPropertyOp5
 70
     1
102
RTVSPropertyOp6
 70
     1
102
RTVSPropertyOp7
 70
     1
102
RTVSPropertyOp8
 70
     1
102
RTVSPropertyOp9
 70
     1
102
RTVSPropertyOp10
 70
     1
102
RTVSPropertyOp11
 70
     1
102
RTVSPropertyOp12
 70
     1
102
RTVSPropertyOp13
 70
     1
102
RTVSPropertyOp14
 70
     1
102
RTVSPropertyOp15
 70
     1
102
RTVSPropertyOp16
 70
     1
102
RTVSPropertyOp17
 70
     1
102
RTVSPropertyOp18
 70
     1
102
RTVSPropertyOp19
 70
     1
102
RTVSPropertyOp20
 70
     1
102
RTVSPropertyOp21
 70
     1
102
RTVSPropertyOp22
 70
     1
102
RTVSPropertyOp23
 70
     1
102
RTVSPropertyOp24
 70
     1
102
RTVSPropertyOp25
 70
     1
102
RTVSPropertyOp26
 70
     1
102
RTVSPropertyOp27
 70
     1
102
RTVSPropertyOp28
 70
     1
102
RTVSPropertyOp29
 70
     1
102
RTVSPropertyOp30
 70
     1
102
RTVSPropertyOp31
 70
     1
102
RTVSPropertyOp32
 70
     1
  0
XRECORD
  5
275
102
{ACAD_REACTORS
330
274
102
}
330
274
100
AcDbXrecord
280
     1
102
RTVSPropertyOp0
 70
     1
102
RTVSPropertyOp1
 70
     1
102
RTVSPropertyOp2
 70
     1
102
RTVSPropertyOp3
 70
     1
102
RTVSPropertyOp4
 70
     1
102
RTVSPropertyOp5
 70
     1
102
RTVSPropertyOp6
 70
     1
102
RTVSPropertyOp7
 70
     1
102
RTVSPropertyOp8
 70
     1
102
RTVSPropertyOp9
 70
     1
102
RTVSPropertyOp10
 70
     1
102
RTVSPropertyOp11
 70
     1
102
RTVSPropertyOp12
 70
     1
102
RTVSPropertyOp13
 70
     1
102
RTVSPropertyOp14
 70
     1
102
RTVSPropertyOp15
 70
     1
102
RTVSPropertyOp16
 70
     1
102
RTVSPropertyOp17
 70
     1
102
RTVSPropertyOp18
 70
     1
102
RTVSPropertyOp19
 70
     1
102
RTVSPropertyOp20
 70
     1
102
RTVSPropertyOp21
 70
     1
102
RTVSPropertyOp22
 70
     1
102
RTVSPropertyOp23
 70
     1
102
RTVSPropertyOp24
 70
     1
102
RTVSPropertyOp25
 70
     1
102
RTVSPropertyOp26
 70
     1
102
RTVSPropertyOp27
 70
     1
102
RTVSPropertyOp28
 70
     1
102
RTVSPropertyOp29
 70
     1
102
RTVSPropertyOp30
 70
     1
102
RTVSPropertyOp31
 70
     1
102
RTVSPropertyOp32
 70
     1
  0
XRECORD
  5
277
102
{ACAD_REACTORS
330
276
102
}
330
276
100
AcDbXrecord
280
     1
102
RTVSPropertyOp0
 70
     1
102
RTVSPropertyOp1
 70
     1
102
RTVSPropertyOp2
 70
     1
102
RTVSPropertyOp3
 70
     1
102
RTVSPropertyOp4
 70
     1
102
RTVSPropertyOp5
 70
     1
102
RTVSPropertyOp6
 70
     1
102
RTVSPropertyOp7
 70
     1
102
RTVSPropertyOp8
 70
     1
102
RTVSPropertyOp9
 70
     1
102
RTVSPropertyOp10
 70
     1
102
RTVSPropertyOp11
 70
     1
102
RTVSPropertyOp12
 70
     1
102
RTVSPropertyOp13
 70
     1
102
RTVSPropertyOp14
 70
     1
102
RTVSPropertyOp15
 70
     1
102
RTVSPropertyOp16
 70
     1
102
RTVSPropertyOp17
 70
     1
102
RTVSPropertyOp18
 70
     1
102
RTVSPropertyOp19
 70
     1
102
RTVSPropertyOp20
 70
     1
102
RTVSPropertyOp21
 70
     1
102
RTVSPropertyOp22
 70
     1
102
RTVSPropertyOp23
 70
     1
102
RTVSPropertyOp24
 70
     1
102
RTVSPropertyOp25
 70
     1
102
RTVSPropertyOp26
 70
     1
102
RTVSPropertyOp27
 70
     1
102
RTVSPropertyOp28
 70
     1
102
RTVSPropertyOp29
 70
     1
102
RTVSPropertyOp30
 70
     1
102
RTVSPropertyOp31
 70
     1
102
RTVSPropertyOp32
 70
     1
  0
XRECORD
  5
279
102
{ACAD_REACTORS
330
278
102
}
330
278
100
AcDbXrecord
280
     1
102
RTVSPropertyOp0
 70
     1
102
RTVSPropertyOp1
 70
     1
102
RTVSPropertyOp2
 70
     1
102
RTVSPropertyOp3
 70
     1
102
RTVSPropertyOp4
 70
     1
102
RTVSPropertyOp5
 70
     1
102
RTVSPropertyOp6
 70
     1
102
RTVSPropertyOp7
 70
     1
102
RTVSPropertyOp8
 70
     1
102
RTVSPropertyOp9
 70
     1
102
RTVSPropertyOp10
 70
     1
102
RTVSPropertyOp11
 70
     1
102
RTVSPropertyOp12
 70
     1
102
RTVSPropertyOp13
 70
     1
102
RTVSPropertyOp14
 70
     1
102
RTVSPropertyOp15
 70
     1
102
RTVSPropertyOp16
 70
     1
102
RTVSPropertyOp17
 70
     1
102
RTVSPropertyOp18
 70
     1
102
RTVSPropertyOp19
 70
     1
102
RTVSPropertyOp20
 70
     1
102
RTVSPropertyOp21
 70
     1
102
RTVSPropertyOp22
 70
     1
102
RTVSPropertyOp23
 70
     1
102
RTVSPropertyOp24
 70
     1
102
RTVSPropertyOp25
 70
     1
102
RTVSPropertyOp26
 70
     1
102
RTVSPropertyOp27
 70
     1
102
RTVSPropertyOp28
 70
     1
102
RTVSPropertyOp29
 70
     1
102
RTVSPropertyOp30
 70
     1
102
RTVSPropertyOp31
 70
     1
102
RTVSPropertyOp32
 70
     1
  0
XRECORD
  5
27B
102
{ACAD_REACTORS
330
27A
102
}
330
27A
100
AcDbXrecord
280
     1
102
RTVSPropertyOp0
 70
     1
102
RTVSPropertyOp1
 70
     1
102
RTVSPropertyOp2
 70
     1
102
RTVSPropertyOp3
 70
     1
102
RTVSPropertyOp4
 70
     1
102
RTVSPropertyOp5
 70
     1
102
RTVSPropertyOp6
 70
     1
102
RTVSPropertyOp7
 70
     1
102
RTVSPropertyOp8
 70
     1
102
RTVSPropertyOp9
 70
     1
102
RTVSPropertyOp10
 70
     1
102
RTVSPropertyOp11
 70
     1
102
RTVSPropertyOp12
 70
     1
102
RTVSPropertyOp13
 70
     1
102
RTVSPropertyOp14
 70
     1
102
RTVSPropertyOp15
 70
     1
102
RTVSPropertyOp16
 70
     1
102
RTVSPropertyOp17
 70
     1
102
RTVSPropertyOp18
 70
     1
102
RTVSPropertyOp19
 70
     1
102
RTVSPropertyOp20
 70
     1
102
RTVSPropertyOp21
 70
     1
102
RTVSPropertyOp22
 70
     1
102
RTVSPropertyOp23
 70
     1
102
RTVSPropertyOp24
 70
     1
102
RTVSPropertyOp25
 70
     1
102
RTVSPropertyOp26
 70
     1
102
RTVSPropertyOp27
 70
     1
102
RTVSPropertyOp28
 70
     1
102
RTVSPropertyOp29
 70
     1
102
RTVSPropertyOp30
 70
     1
102
RTVSPropertyOp31
 70
     1
102
RTVSPropertyOp32
 70
     1
  0
XRECORD
  5
28F
102
{ACAD_REACTORS
330
28E
102
}
330
28E
100
AcDbXrecord
280
     1
102
RTVSPropertyOp0
 70
     1
102
RTVSPropertyOp1
 70
     1
102
RTVSPropertyOp2
 70
     1
102
RTVSPropertyOp3
 70
     1
102
RTVSPropertyOp4
 70
     1
102
RTVSPropertyOp5
 70
     1
102
RTVSPropertyOp6
 70
     1
102
RTVSPropertyOp7
 70
     1
102
RTVSPropertyOp8
 70
     1
102
RTVSPropertyOp9
 70
     1
102
RTVSPropertyOp10
 70
     1
102
RTVSPropertyOp11
 70
     1
102
RTVSPropertyOp12
 70
     1
102
RTVSPropertyOp13
 70
     1
102
RTVSPropertyOp14
 70
     1
102
RTVSPropertyOp15
 70
     1
102
RTVSPropertyOp16
 70
     1
102
RTVSPropertyOp17
 70
     1
102
RTVSPropertyOp18
 70
     1
102
RTVSPropertyOp19
 70
     1
102
RTVSPropertyOp20
 70
     1
102
RTVSPropertyOp21
 70
     1
102
RTVSPropertyOp22
 70
     1
102
RTVSPropertyOp23
 70
     1
102
RTVSPropertyOp24
 70
     1
102
RTVSPropertyOp25
 70
     1
102
RTVSPropertyOp26
 70
     1
102
RTVSPropertyOp27
 70
     1
102
RTVSPropertyOp28
 70
     1
102
RTVSPropertyOp29
 70
     1
102
RTVSPropertyOp30
 70
     1
102
RTVSPropertyOp31
 70
     1
102
RTVSPropertyOp32
 70
     1
  0
XRECORD
  5
285
102
{ACAD_REACTORS
330
284
102
}
330
284
100
AcDbXrecord
280
     1
102
RTVSPropertyOp0
 70
     1
102
RTVSPropertyOp1
 70
     1
102
RTVSPropertyOp2
 70
     1
102
RTVSPropertyOp3
 70
     1
102
RTVSPropertyOp4
 70
     1
102
RTVSPropertyOp5
 70
     1
102
RTVSPropertyOp6
 70
     1
102
RTVSPropertyOp7
 70
     1
102
RTVSPropertyOp8
 70
     1
102
RTVSPropertyOp9
 70
     1
102
RTVSPropertyOp10
 70
     1
102
RTVSPropertyOp11
 70
     1
102
RTVSPropertyOp12
 70
     1
102
RTVSPropertyOp13
 70
     1
102
RTVSPropertyOp14
 70
     1
102
RTVSPropertyOp15
 70
     1
102
RTVSPropertyOp16
 70
     1
102
RTVSPropertyOp17
 70
     1
102
RTVSPropertyOp18
 70
     1
102
RTVSPropertyOp19
 70
     1
102
RTVSPropertyOp20
 70
     1
102
RTVSPropertyOp21
 70
     1
102
RTVSPropertyOp22
 70
     1
102
RTVSPropertyOp23
 70
     1
102
RTVSPropertyOp24
 70
     1
102
RTVSPropertyOp25
 70
     1
102
RTVSPropertyOp26
 70
     1
102
RTVSPropertyOp27
 70
     1
102
RTVSPropertyOp28
 70
     1
102
RTVSPropertyOp29
 70
     1
102
RTVSPropertyOp30
 70
     1
102
RTVSPropertyOp31
 70
     1
102
RTVSPropertyOp32
 70
     1
  0
XRECORD
  5
28D
102
{ACAD_REACTORS
330
28C
102
}
330
28C
100
AcDbXrecord
280
     1
102
RTVSPropertyOp0
 70
     1
102
RTVSPropertyOp1
 70
     1
102
RTVSPropertyOp2
 70
     1
102
RTVSPropertyOp3
 70
     1
102
RTVSPropertyOp4
 70
     1
102
RTVSPropertyOp5
 70
     1
102
RTVSPropertyOp6
 70
     1
102
RTVSPropertyOp7
 70
     1
102
RTVSPropertyOp8
 70
     1
102
RTVSPropertyOp9
 70
     1
102
RTVSPropertyOp10
 70
     1
102
RTVSPropertyOp11
 70
     1
102
RTVSPropertyOp12
 70
     1
102
RTVSPropertyOp13
 70
     1
102
RTVSPropertyOp14
 70
     1
102
RTVSPropertyOp15
 70
     1
102
RTVSPropertyOp16
 70
     1
102
RTVSPropertyOp17
 70
     1
102
RTVSPropertyOp18
 70
     1
102
RTVSPropertyOp19
 70
     1
102
RTVSPropertyOp20
 70
     1
102
RTVSPropertyOp21
 70
     1
102
RTVSPropertyOp22
 70
     1
102
RTVSPropertyOp23
 70
     1
102
RTVSPropertyOp24
 70
     1
102
RTVSPropertyOp25
 70
     1
102
RTVSPropertyOp26
 70
     1
102
RTVSPropertyOp27
 70
     1
102
RTVSPropertyOp28
 70
     1
102
RTVSPropertyOp29
 70
     1
102
RTVSPropertyOp30
 70
     1
102
RTVSPropertyOp31
 70
     1
102
RTVSPropertyOp32
 70
     1
  0
ENDSEC
  0
SECTION
  2
THUMBNAILIMAGE
 90
    16364
310
28000000B40000005500000001000800000000000000000000000000000000000000000000000000FFFFFF00FF000000FFFF000000FF000000FFFF000000FF00FF00FF000000000080808000C0C0C000FF000000FF7F7F00A5000000A55252007F0000007F3F3F004C0000004C2626002600000026131300FF3F0000FF9F7F
310
00A5290000A56752007F1F00007F4F3F004C1300004C2F26002609000026171300FF7F0000FFBF7F00A5520000A57C52007F3F00007F5F3F004C2600004C39260026130000261C1300FFBF0000FFDF7F00A57C0000A59152007F5F00007F6F3F004C3900004C422600261C000026211300FFFF0000FFFF7F00A5A50000A5A5
310
52007F7F00007F7F3F004C4C00004C4C26002626000026261300BFFF0000DFFF7F007CA5000091A552005F7F00006F7F3F00394C0000424C26001C260000212613007FFF0000BFFF7F0052A500007CA552003F7F00005F7F3F00264C0000394C2600132600001C2613003FFF00009FFF7F0029A5000067A552001F7F00004F
310
7F3F00134C00002F4C2600092600001726130000FF00007FFF7F0000A5000052A55200007F00003F7F3F00004C0000264C2600002600001326130000FF3F007FFF9F0000A5290052A56700007F1F003F7F4F00004C1300264C2F00002609001326170000FF7F007FFFBF0000A5520052A57C00007F3F003F7F5F00004C2600
310
264C39000026130013261C0000FFBF007FFFDF0000A57C0052A59100007F5F003F7F6F00004C3900264C420000261C001326210000FFFF007FFFFF0000A5A50052A5A500007F7F003F7F7F00004C4C00264C4C00002626001326260000BFFF007FDFFF00007CA5005291A500005F7F003F6F7F0000394C0026424C00001C26
310
0013212600007FFF007FBFFF000052A500527CA500003F7F003F5F7F0000264C0026394C0000132600131C2600003FFF007F9FFF000029A5005267A500001F7F003F4F7F0000134C00262F4C0000092600131726000000FF007F7FFF000000A5005252A50000007F003F3F7F0000004C0026264C0000002600131326003F00
310
FF009F7FFF002900A5006752A5001F007F004F3F7F0013004C002F264C0009002600171326007F00FF00BF7FFF005200A5007C52A5003F007F005F3F7F0026004C0039264C00130026001C132600BF00FF00DF7FFF007C00A5009152A5005F007F006F3F7F0039004C0042264C001C00260021132600FF00FF00FF7FFF00A5
310
00A500A552A5007F007F007F3F7F004C004C004C264C002600260026132600FF00BF00FF7FDF00A5007C00A55291007F005F007F3F6F004C0039004C26420026001C0026132100FF007F00FF7FBF00A5005200A5527C007F003F007F3F5F004C0026004C2639002600130026131C00FF003F00FF7F9F00A5002900A5526700
310
7F001F007F3F4F004C0013004C262F002600090026131700000000002D2D2D005B5B5B0089898900B7B7B700B3B3B30000000000000000000000000000000000000000000000000000000000000000000000000000000000000000000000000000000000000000000000000000000000000000000000000000000000000000
310
00000000000000000000000000000000000000000000000000000000000000000000000000000000000000000000000000000000000000000000000000000000000000000000000000000000000000000000000000000000000000000000000000000000000000000000000000000000000000000000000000000000000000
310
00000707070707070707070707070707070707070707070707070707070707070707070707070707070707070707070707070707070707070707070707070707070707070707070707070707070707070707070707070707070707070707070707070707070707070707070707070707070707070707070707000000000000
310
00000000000000000000000000000000000000000000000000000000000000000000000000000000000000000000000000000000000000070707010101010101010101010101010101010101010101010101010101010101010101010101010101010101010101010101010101010101010101010101010101010101010101
310
01010101010101010101010101010101010101010101010101010101010101010101010101010101010101010101070000000000000000000000000000000000000000000000000000000000000000000000000000000000000000000000000000000000000000000000000007070701000000000000000000000000000000
310
00000000000000000000000000000000000000000000000000000000000000000000000000000000000000000000000000000000000000000000000000000000000000000000000001070707070701070107010000000000000000010707070707070107070700000000000000000000000000000000000000000000000000
310
00000000000000000000000000000000000000000000000000000000000000000000070707010000000000000000000000000000000000000000000000000000000000000000000000000000000000000000000000000000000000000000000000000000000000000000000000000000000000000000000000000000000107
310
07070707070701070101010101010101010107070107070701070000000000000000000000000000000000000000000000000000000000000000000000000000000000000000000000000000000000000000000000000007070701000000000000000000000000000000000000000000000000000000000000000000000000
310
00000000000000000000000000000000000000000000000000000000000000000000000000000000000000000000000000000001070707070707070107010707070707070707070707010001070107000000000000000000000000000000000000000000000000000000000000000000000000000000000000000000000000
310
00000000000000000000000000070707010000000000000000000000000000000000000000000000000000000000000000000000000000000000000000000000000000000000000000000000000000000000000000000000000000000000000000000000000000000107070707070707070707070707070707070707070701
310
01010701070000000000000000000000000000000000000000000000000000000000000000000000000000000000000000000000000000000000000000000000000007070701000000000000000000000000000000000000000000000000000000000000000000000000000000000000000000000000000000000000000000
310
00000000000000000000000000000000000000000000000000000000000001010701070701070107010101010101010101010707070707070107000000000000000000000000000000000000000000000000000000000000000000000000000000000000000000000000000000000000000000000000000707070100000000
310
00000000000000000000000000000000000000000000000000000000000000000000000000000000000000000000000000000000000000000000000000000000000000000000000000000000000000000000000101070107070107010707070707070707070707070707070707010707070707070700000000000000000000
310
00000000000000000000000000000000000000000000000000000000000000000000000000000000000000000007070701000000000000000000000000000000000000000000000000000000000000000000000000000000000000000000000000000000000000000000000000000000000000000000000000000000000000
310
00000000000000000007010701070701070107070707070707070707070707070707070107070707070707000000000000000000000000000000000000000000000000000000000000000000000000000000000000000000000000000000000000000707070100000000000000000000000000000000000000000000000000
310
00000000000000000000000000000000000000000000000000000000000000000000000000000000000000000000000000000000000000000000000000000000000000000000000000000000000000000000000000000000010700000000000000000000000000000000000000000000000000000000000000000000000000
310
00000000000000000000000000000000000000000000000007070701000000000000000000000000000000000000000000000000000000000000000000000000000000000000000000000000000000000000000000000000000000000000000000000000000000000000000000000000000000000000000000000000000000
310
00000000000000000000000000000107000000000000000000000000000000000000000000000000000000000000000000000000000000000000000000000000000000000000000000000000000707070100000000000000000000000000000000000000000000000000000000000000000000000000000000000000000000
310
00000000000000000000000000000000000000000000000000000000000000000000000000000000000000000000000000000000000000000000000000000000000000010700000000000000000000000000000000000000000000000000000000000000000000000000000000000000000000000000000000000000000000
310
00000007070701000000000000000000000000000000000000000000000000000000000000000000000000000000000000000000000000000000000000000000000000000000000000000000000000000000000000000000000000000000000000000000000000000000000000000000000000000000000001070000000000
310
00000000000000000000000000000000000000000000000000000000000000000000000000000000000000000000000000000000000000000707070100000000000000000000000000000000000000000000000000000000000000000000000000000000000000000000000000000000000000000000000000000000000000
310
00000000000000000000000000000000000000000000000000000000000000000000000000000000000000000000010700000000000000000000000000000000000000000000000000000000000000000000000000000000000000000000000000000000000000000000000000070707010000000000000000070707070707
310
07070707070707070707070707070707070707070707000000000000000000000000000000000000000000000000000000000000000000000000000000000000000000000000000000000000000000000000000000000000000000000000000000000001070000000000000000000000000000000000000000000000000000
310
00000000000000000000000000000000000000000000000000000000000000000000000707070100000000000000000700000000000000000000000000000000000000000000000000000700000000000000070707070707070707070707070707070707070707070707070707070700000000000007070707070707070707
310
07070707070707070707070707070707000000000000000000010700000000000000000000000000000000000000000000000000000000000000000000000000000000000000000000000000000000000000000000000000070707010000000000000000070000000000000000000000000000000000000000000000000007
310
07070707000000000700000000000000000000000000000000000000000000000000070707070707000000070000000000000000000000000000000000000000000000070707070707000000000001070000000000000000000000000000000000000000000000000000000000000000000000000000000000000000000000
310
00000000000000000000000000000707070100000000000000000700000000000000000000000000000000000000000000000000070707070700000007070707000000000000000000000000000000000000000000000000070707070700000007000000000000000000000000000000000000000000000000070707070700
310
00000000010700000000000000000000000000000000000000000000000000000000000000000000000000000000000000000000000000000000000000000000000000070707010000000000000000070000000000000000000000000000000000000000000000000000070000070000000707070707000000000000000000
310
00000000000000000000000000000007000000000007070707070000000000000000000000000000000000000000000700000000000000000001070000000000000000000000000000000000000000000000000000000000000000000000000000000000000000000000000000000000000000000000000007070701000000
310
00000000070707070707000000000000000000000000000000000000000000000700000000000000070000000000000000000000000000000000000000000000000000000700000000000707070707000000000000000000000000000000000000000007070707000000000000000107000000000000000000000000000000
310
00000000000000000000000000000000000000000000000000000000000000000000000000000000000000000000070707010000000000000007070707070000000000000000000000000000000000000000000000070000000000000007000000000000000000000000000000000000000000000000000000070000000000
310
00070000000000000000000000000000000000000000000000000707070700000000000001070000000000000000000000000000000000000000000000000000000000000000000000000000000000000000000000000000000000000000000000000007070701000000000000000007000000000000000000000000000000
310
00000000000000000007070707070000000000070000000000000000000000000000000000000000000000000000000700000000000007000000000000000000000000000000000000000000000000070000000000000000000107000000000000000000000000000000000000000000000000000000000000000000000000
310
00000000000000000000000000000000000000000000000000070707010000000000000000070000000000000000000000000000000000000000000000000707070707000000000007000000000000000000000000000000000000000000000000000000070000000000000700000000000000000000000000000000000000
310
00000000000700000000000000000001070000000000000000000000000000000000000000000000000000000000000000000000000000000000000000000000000000000000000000000000000007000001000000000000000007000000000000000000000000000000000000000000000000000007000000000000000700
310
00000000000000000000000000000000000000000000000000000700000000000007000000000000000000000000000000000000000000000000070000000000000000000107000000000000000000000000000000000000000000000000000000000000000000000000000000000000000000000000000000000000000000
310
00000000070101010000000000000000070000000000000000000000000000000000000000000000000000070000000000000007000000000000000000000000000000000000000000000000000000070000000000000700000000000000000000000000000000000000000000000007000000000000000000010700000000
310
00000000000000000000000000000000000000000000000000000000000000000000000000000000000000000000000000000000000000000007010101000000000000000007000000000000000000000000000000000000000000000000000007000000000000000700000000000000000000000000000000000000000000
310
00000000000700000000000007000000000000000000000000000000000000000000000000070000000000000000000107000000000000000000000000000000000000000000000000000000000000000000000000000000000000000000000000000000000000000000000000000701010100000000000000000700000000
310
00000000000000000000000000000000000000000000070000000000000007000000000000000000000000000000000000000000000000000000070000000000000700000000000000000000000000000000000000000000000007000000000000000000010700000000000000000000000000000000000000000000000000
310
00000000000000000000000000000000000000000000000000000000000000000000000007070701000000000000000007000000000000000000000000000000000000000000000000000007000000000000000700000000000000000000000000000000000000000000000000000007000000000000070000000000000000
310
00000000000000000000000000000000070000000000000000000107000000000000000000000000000000000000000000000000000000000000000000000000000000000000000000000000000000000000000000000000000707070100000000000000000700000000000000000000000000000000000000000000000000
310
00070000000000000007000000000000000000000000000000000000000000000000000000070000000000000700000000000000000000000000000000000000000000000007000000000000000000010700000000000000000000000000000000000000000000000000000000000000000000000000000000000000000000
310
00000000000000000000000000000007070701000000000000000007000000000000000000000000000000000000000000000000000007000000000000000707070000000000000000000000000000000000000000000000000007000000000000070000000000000000000000000000000000000000000000000700000000
310
00000000000107000000000000000000000000000000000000000000000000000000000000000000000000000000000000000000000000000000000000000000000000000707070100000000000000000700000000000000000000000000000000000000000000000000000700000000000000070707070000000000000000
310
00000000000000000000000000000000070000000000000700000000000000000000000000000000000000000000000007000000000000000000010700000000000000000000000000000000000000000000000000000000000000000000000000000000000000000000000000000000000000000000000000070101010000
310
00000000000007000000000000000000000000000000000000000000000000000007000000000000000707070707070707070707070707070707070707070707070707070707000000000000070707070707070707070707070707070707070707070707070700000000000000000001070000000000000000000000000000
310
00000000000000000000000000000000000000000000000000000000000000000000000000000000000000000000000701010100000000000000000700000000000000000000000000000000000000000000000000000700000000000000000000000000000000000000000000000000000000000000000000000000000000
310
00000000000000000000000000000000000000000000000000000000000000000000000000010700000000000000000000000000000000000000000000000000000000000000000000000000000000000000000000000000000000000000000000000000070101010000000000000000070707070000000000000000000000
310
00000000000000000000000007000000000000000000000000000000000000000000000000000000000000000000000000000000000000000000000000000000000000000000000000000000000000000000000000000000000001070000000000000000000000000000000000000000000000000000000000000000000000
310
00000000000000000000000000000000000000000000000000000701010100000000000000000707070707070707070707070707070707070707070707070707070700000000000000000000000000000000000000000000000000000000000000000000000000000000000000000000000000000000000000000000000000
310
00000000000000000000000000000000010700000000000000000000000000000000000000000000000000000000000000000000000000000000000000000000000000000000000000000000000000070707010000000000000000000000000000000000000000000000000000000000000000000000000000000000000000
310
00000000000000000000000000000000000000000000000000000000000000000000000000000000000000000000000000000000000000000000000000000000000000000001070000000000000000000000000000000000000000000000000000000000000000000000000000000000000000000000000000000000000000
310
00000000000707070100000000000000000707070707070707070007000707000007070707070000070707070707070707070707070707070000000000000000000000000000000000000000000000000000000000000000000000000000000000000000000000000000000000000000000000000000000000000107000000
310
00000000000000000000000000000000000000000000000000000000000000000000000000000000000000000000000000000000000000000000070707010000000000000000070707070707070707070700070707000707070707070007070707070707070707070707070707000000000000000000000000000000000000
310
00000000000000000000000000000000000000000000000000000000000000000000000000000000000000000000000001070000000000000000000000000000000000000000000000000000000000000000000000000000000000000000000000000000000000000000000000000007070701000000000000000007070707
310
07070707070707000707070007070707070700070707070707070707070707070707000000000000000000000000000000000000000000000000000000000000000000000000000000000000000000000000000000000000000000000000000000000000000107000000000000000000000000000000000000000000000000
310
00000000000000000000000000000000000000000000000000000000000000000000000000070707010000000000000000070707070707070700000707070707000000000007000000000000000000000000000000000000000000000000000000000000000000000000000000000000000000000000000000000000000000
310
00000000000000000000000000000000000000000000000000000001070000000000000000000000000000000000000000000000000000000000000000000000000000000000000000000000000000000000000000000000000007070701000000000000000007070707070707070700070707070707000707000707000000
310
00000000000000000000000000000000000000000000000000000000000000000000000000000000000000000000000000000000000000000000000000000000000000000000000000000000000000000107000000000000000000000000000000000000000000000000000000000000000000000000000000000000000000
310
00000000000000000000000000000000070101010000000000000000070707070707070707000707070707070000000007070000000000000000000000000000000000000000000000000000000000000000000000000000000000000000000000000000000000000000000000000000000000000000000000000000000000
310
00000000000001070000000000000000000000000000000000000000000000000000000000000000000000000000000000000000000000000000000000000000000000000007000001000000000000000000000000000000000000000000000000000000000000000000000000000000000000000000000000000000000000
310
00000000000000000000000000000000000000000000000000000000000000000000000000000000000000000000000000000000000000000000000107000000000000000000000000000000000000000000000000000000000000000000000000000000000000000000000000000000000000000000000000000700000100
310
00000000000000000000000000000000000000000000000000000000000000000000000000000000000000000000000000000000000000000000000000000000000000000000000000000000000000000000000000000000000000000000000000000000000000000000000000000000010700000000000000000000000000
310
00000000000000000000000000000000000000000000000000000000000000000000000000000000000000000000000007000001000000000000000101070701070707070107070707070701070707070707070707070707070707070107070707070107070707070107070707070707070707010707070707070100000000
310
00000000000000000000000000000000000000000000000000000000000000000000000000000107000000000000000000000000000000000000000000000000000000000000000000000000000000000000000000000000000000000000000000000000000700000100000000000000010007070007000707000707070707
310
07000700070707070707070707070707070700070707070700070707070700070707070707070707070707070707070701000000000000000000000000000000000000000000000000000000000000000000000000000000000000010700000000000000000000000000000000000000000000000000000000000000000000
310
00000000000000000000000000000000000000000000000000000007000001000000000000000707070707070707070707070707070707070707070707070707070707070707070707070707070707070707070707070707070707070707070707070707070700000000000000000000000000000000000000000000000000
310
00000000000000000000000000000000000107000000000000000000000000000000000000000000000000000000000000000000000000000000000000000000000000000000000000000000000000000700000100000000000000070707070707070707070707070707070707070707070707070707070707070707070707
310
07070707070707070707070707070707070707070707070707070707000000000000000000000000000000000000000000000000000000000000000000000000000000000000010700000000000000000000000000000000000000000000000000000000000000000000000000000000000000000000000000000000000000
310
00000000000007000001000000000000000100070700070707070007070707070700070707070707070707070707070707070007070707070007070707070007070707070707070707070707070707070100000000000000000000000000000000000000000000000000000000000000000000000000000000000001070000
310
00000000000000000000000000000000000000000000000000000000000000000000000000000000000000000000000000000000000000000000000700000100000000000000010707070707070707070707070707070707070707070707070707070707070707070707070707070707070707070707070707070707070707
310
07070707070701000000000000000000000000000000000000000000000000000000000000000000000000000000000000010700000000000000000000000000000000000000000000000000000000000000000000000000000000000000000000000000000000000000000000000000070000010000000000000001000707
310
00070707070007070707070700070707070700070707070707070707070007070707070007070707070007070707070707070707070707070707070100000000000000000000000000000000000000000000000000000000000000000000000000000000000001070000000000000000000000000000000000000000000000
310
00000000000000000000000000000000000000000000000000000000000000000000000000000700000100000000000000010707070707070707070707070707070707070707070707070707070707070707070707070707070707070707070707070707070707070707070707070707010000000000000000000000000000
310
00000000000000000000000000000000000000000000000000000000010700000000000000000000000000000000000000000000000000000000000000000000000000000000000000000000000000000000000000000000000000070000010000000000000001070707070707070707070707070707070707070707070707
310
07070707070707070707070707070707070707070707070707070707070707070707070707070100000000000000000000000000000000000000000000000000000000000000000000000000000000000001070000000000000000000000000000000000000000000000000000000000000000000000000000000000000000
310
00000000000000000000000000000000000700000100000000000000010007000007070707000707070707070007070707070007070707070707070707000707070707000707070707000707070707070707070707070707070707010000000000000000000000000000000000000000000000000000000000000000000000
310
00000000000000010700000000000000000000000000000000000000000000000000000000000000000000000000000000000000000000000000000000000000000000000000070000010000000000000001070707070707070707070707070707070707070707070707070707070707070707070707070707070707070707
310
07070707070707070707070707070707070100000000000000000000000000000000000000000000000000000000000000000000000000000000000001070000000000000000000000000000000000000000000000000000000000000000000000000000000000000000000000000000000000000000000000000007000001
310
00000000000000010007070007070707000707070707070007070707070007070707070707070707000707070707000707070707000707070707070707070707070707070707010000000000000000000000000000000000000000000000000000000000000000000000000000000000000107000000000000000000000000
310
00000000000000000000000000000000000000000000000000000000000000000000000000000000000000000000000000070000010000000000000001070707070707070707070707070707070707070707070707070707070707070707070707070707070707070707070707070707070707070707070707070701000000
310
00000000000000000000000000000000000000000000000000000000000000000000000000000001070000000000000000000000000000000000000000000000000000000000000000000000000000000000000000000000000000000000000000000000000007000001000000000000000100070700070007000007070707
310
07070007070707070007070707070707070707000707070707000707070707000707070707070707070707070707070707010000000000000000000000000000000000000000000000000000000000000000000000000000000000000107000000000000000000000000000000000000000000000000000000000000000000
310
00000000000000000000000000000000000000000000000000000000070000010000000000000001070707070707070707070707070707070707070707070707070707070707070707070707070707070707070707070707070707070707070707070707070701000000000000000000000000000000000000000000000000
310
00000000000000000000000000000000000001070000000000000000000000000000000000000000000000000000000000000000000000000000000000000000000000000000000000000000000000000007000001000000000000000107070707070707070707070707070707070707070707070707070707070707070707
310
07070707070707070707070707070707070707070707070707070707010000000000000000000000000000000000000000000000000000000000000000000000000000000000000107000000000000000000000000000000000000000000000000000000000000000000000000000000000000000000000000000000000000
310
00000000000000070000010000000000000001000707000700070000070007070007000707070707070707070707000707000700070707070700070707070700070707070707070707070707070707070701000000000000000000000000000000000000000000000000000000000000000000000000000000000000010700
310
00000000000000000000000000000000000000000000000000000000000000000000000000000000000000000000000000000000000000000000000007000001000000000000000107070707070707070707070707070707070707070707070707070707070707070707070707070707070707070707070707070707070707
310
07070707070707010000000000000000000000000000000000000000000000000000000000000000000000000000000000000107000000000000000000000000000000000000000000000000000000000000000000000000000000000000000000000000000000000000000000000000000700000100000000000000010707
310
07070707070707070707070707070707070707070707070707070707070707070707070707070707070707070707070707070707070707070707070701000000000000000000000000000000000000000000000000000000000000000000000000000000000000010700000000000000000000000000000000000000000000
310
00000000000000000000000000000000000000000000000000000000000000000000000000000007000001000000000000000100070000070007000007070707070700070707070700070707070707070707070007070707070007070707070007070707070707070707070707070707070100000000000000000000000000
310
00000000000000000000000000000000000000000000000000000000000107000000000000000000000000000000000000000000000000000000000000000000000000000000000000000000000000000000000000000000000000000700000100000000000000010107010107070707010707070707070107070701070707
310
07070707070707070701010707010707070707070701070707010107010707010107070707070701000000000000000000000000000000000000000000000000000000000000000000000000000000000000010700000000000000000000000000000000000000000000000000000000000000000000000000000000000000
310
00000000000000000000000000000000000007000001000000000000000100070000070707070007070007070700000707000707000007070707000007070000070700070707000707070007000707000700070700000707070007070100000000000000000000000000000000000000000000000000000000000000000000
310
00000000000000000107000000000000000000000000000000000000000000000000000000000000000000000000000000000000000000000000000000000000000000000000000700000100000000000000010101010107010101010701010101070101010101070101010101070101010107010101010107010101010107
310
01010101010107010101010107010101010101000000000000000000000000000000000000000000000000000000000000000000000000000000000000010700000000000000000000000000000000000000000000000000000000000000000000000000000000000000000000000000000000000000000000000000070000
310
01000000000000000000000000000000000000000000000000000000000000000000000000000000000000000000000000000000000000000000000000000000000000000000000000000000000000000000000000000000000000000000000000000000000000000000000000000000000001070000000000000000000000
310
00000000000000000000000000000000000000000000000000000000000000000000000000000000000000000000000000000700000100000000000000000007070707070707070707070007070700070707070707070707070707070707070007000007070707070707070707070707070707070707070000070707070007
310
07070707070707070007070707070700000000000000000000000000000000000000000000000000010700000000000000000000000000000000000000000000000000000000000000000000000000000000000000000000000000000000000000000000000000070000010000000000000000000707070707070707070707
310
00070707070707070707070707070707070707070700070700070707070707070707070707070707070707070707000707070707070707070707070707000707070707070700000000000000000000000000000000000000000000000001070000000000000000000000000000000000000000000000000000000000000000
310
00000000000000000000000000000000000000000000000000000000000700000100000000000000000000000000000000000000000000000000000000000000000000000000000000000000000000000000000000000000000000000000000000000000000000000000000000000000000000000000000000000000000000
310
00000000000000000000000000000000000000010700000000000000000000000000000000000000000000000000000000000000000000000000000000000000000000000000000000000000000000000000070000010000000000000000000000000000000000000000000000000000000000000000000000000000000000
310
00000000000000000000000000000000000000000000000000000000000000000000000000000000000000000000000000000000000000000000000000000000000000000000000001070000000000000000000000000000000000000000000000000000000000000000000000000000000000000000000000000000000000
310
00000000000000000700000100000000000000000000000000000000000000000000000000000000000000000000000000000000000000000000000000000000000000000000000000000000000000000000000000000000000000000000000000000000000000000000000000000000000000000000000000000000000107
310
00000000000000000000000000000000000000000000000000000000000000000000000000000000000000000000000000000000000000000000000000070000010000000000000000000000000000000000000000000000000000000000000000000000000000000000000000000000000000000000000000000000000000
310
00000000000000000000000000000000000000000000000000000000000000000000000000000000000000000000000000000001070000000000000000000000000000000000000000000000000000000000000000000000000000000000000000000000000000000000000000000000000007000001000000000000000000
310
00000000000000000000000000000000000000000000000000000000070007070707000707000700070700070707070007000007000707070700070700070007070007070707000000070700070707070000000707000000000000000000000000000000000000000107000000000000000000000000000000000000000000
310
00000000000000000000000000000000000000000000000000000000000000000000000000000000070000010000000000000000000000000000000000000000000000000000000000000000000000000007070707070707070707070707070707070707070700000707070707070707000707070707070707070707000007
310
07070707070707000007070700000000000000000000000000000000000001070000000000000000000000000000000000000000000000000000000000000000000000000000000000000000000000000000000000000000000000000007000001000000000000000000000000000000000000000000000000000000000000
310
00000000000000070707070707070707070707070707070707070707070007070707070707070707070707070707070707070007070707070707070700070707070000000000000000000000000000000000000107000000000000000000000000000000000000000000000000000000000000000000000000000000000000
310
00000000000000000000000000000000000000070000010000000000000000000000000000000000000000000000000000000000000000000000000000000000000000000000000000000000000000000000000000000000000000000000000000000000000000000000000000000000000000000000000000000000000000
310
00000000000000000001070000000000000000000000000000000000000000000000000000000000000000000000000000000000000000000000000000000000000000000000000007000001000000000000000000000000000000000000000000000000000000000000000000000000000000000000000000000000000000
310
00000000000000000000000000000000000000000000000000000000000000000000000000000000000000000000000000000000000000000000000000000107000000000000000000000000000000000000000000000000000000000000000000000000000000000000000000000000000000000000000000000000000700
310
00010000000000000000000000000000000000000000000000000000000000000000000000000000000000000000000000000000000000000000000000000000000000000000000000000000000000000000000000000000000000000000000000000000000000000000000000000000000000010700000000000000000000
310
00000000000000000000000000000000000000000000000000000000000000000000000000000000000000000000000000000007000001000000000000000000000000000000000000000000000000000000000000000000000000000000000000000000000000000000000000000000000000000000000000000000000000
310
00000000000000000000000000000000000000000000000000000000000000000000000000000000000107000000000000000000000000000000000000000000000000000000000000000000000000000000000000000000000000000000000000000000000000000707070107070707070707070701000000000000000000
310
00000000000000000000000000000000000000000000000000000000000000000000000000000000000000000000000000000000000000000000000000000000000000000000000000000000000000000000000000000000000000000000010700000000000000000000000000000000000000000000000000000000000000
310
00000000000000000000000000000000000000000000000000000000000007070701010101010101010101010101010101010101010101010101010101010101010101010101010101010101010101010101010101010101010101010101010101010101010101010101010101010101010101010101010101010101010101
310
01010101010101010101010101010101010101010107000000000000000000000000000000000000000000000000000000000000000000000000000000000000000000000000000000000000000000000000000707070707070707070707070707070707070707070707070707070707070707070707070707070707070707
310
070707070707070707070707070707070707070707070707070707070707070707070707070707070707070707070707070707070707070707070707070707070707070707070707070707000000000000000000000000000000000000000000000000000000000000000000
  0
ENDSEC
  0
EOF
